PrimaNota.ru - самый крупный в мире бесплатный архив песенных текстов, аккордов, табулатур и нот


Misc Traditional - Phi Mu Alpha Sinfonia - A Serenade To A Girl - таба

Регистрация Запомнить меня
Войти через:  Facebook Google Twitter Vk Yandex Mail.ru

Misc Traditional - Phi Mu Alpha Sinfonia - A Serenade To A Girl - таба

Печатать
Просмотров: 99
-------------------------------------------------------------------------------
                             A Serenade to a Girl - Phi Mu Alpha Sinfonia
-------------------------------------------------------------------------------
Tabbed by: Lambo (Beta Tau)

att. Beta Theta Chapter, Millikin University
arr. Robert Rogers (Gamma Theta)
guitar arr. Lambo (Beta Tau)

Here's a recording of this version: https://www.youtube.com/watch?v=g2s7m3L5hEo

Tuning: Standard

e|--------|---------------|---------------|-------------2-|-0-----------|--------------------|------------|
B|--------|-----3---------|---------------|-----3-----3-0-|-0-----------|----2-0---------0---|------------|
G|--------|-2==-4-4-2---2-|-4--4----------|-2-----4-4-4---|-------------|----2-0-7---------6-|-7--7----0--|
D|--0-2-4-|-4==-4-4-4---4-|-5--5----0-2-4-|-4---4-4-4-4-0-|-0-----------|-12*===-7--7===---7-|-9--9----0--|
A|--------|-5p4-2-5-4---4-|-5--5------4-5-|-4---5-5-5-0-0-|---------12*=|=======-9--9===-9==-|-9--9----7--|
E|--------|---------2---2-|-3--3--------7-|-2---2-7-7-----|-3-----------|----------12p10-9==-|-7--7----6--|
    E E E   E E E E Q.  E   Q  Q  e E E E   Q.  E E E E E   H.    e  E     E E E E  E  E E E   Q  H    Q  

                          &
e|--------------|-------------|--------------|-------------|----0h2-------|--------------|
B|--------------|-------------|-7--7-7-3--5--|-7--7===-----|-3--2==-3-----|-3-p2---------|
G|-2------2--0--|-------------|-7--6-6-4--6--|-7--7===--2--|-4------4--4--|-2===---------|
D|-4--4/5-4--7--|--7------7-7-|-7--7-7-5--5--|-7--7===--4--|-4--2h4----5--|-2===---0-2-4-|
A|-5--5---5--7--|--9----------|-5--5-5-5--5--|-5--5-\4--4--|-2--0==-5--5--|-0===---------|
E|-5--7p6-5--9--|-10----------|--------------|-------------|--------3--3--|--------------|
   Q  E E Q  Q     H.     E E   Q  E E Q  Q    Q  Q  Q  Q    Q  E E Q  Q    Q  Q e E E E 

                            ^                                       ^
e|---------2------|-------2---------|-----0-2---2-2-2-|-----------|----------|
B|---------0--5-3-|-2-2-3---0-------|---3====-3-3-2-2-|-3----5----|-3--------|
G|-2==-7h9----4-4-|-2-2-2-2-0-------|-2======-4-------|-4----6----|-2--------|
D|-4==-9==-0--0-0-|---------0-0-2-4-|-4========-4-2-2-|-2----5----|-4--------|
A|-5p4-9==--------|-4-4-5-4---------|-5==-4==-2-2-0-0-|-----------|-5--------|
E|-----7==-3--3-3-|-2-2-2-2-3-------|-----------------|-3----5----|----------|
   E E E E Q  E E   E E E E E E E E   E E E E E E E E   H    H      H
                                        
In the 3rd to last bar, use your pinky on the first two notes on the A string, even though the C# will feel
weird against the D string F# that your ring finger is holding

Some weird stretches in the chords, but it's manageable with practice



Beta Tau repeats from the & and does the following on the fermatas, as seen in the Youtube link

e|--5p3------| |---------------------------|
B|--0--------| |-3=======[10]--------------|
G|--0--------| |-2==[14]-------------------|
D|--0--------| |-4================[9]------|
A|-----------| |-5============[9]-----[9]--|
E|--3--------| |---------------------------|
                   (a la "For the Longest Time")



************************************

| /   slide up
| \   slide down
| h   hammer-on
| p   pull-off
| *   harmonic
|[9]  artificial harmonic
| ^   fermata
| =   hold note while other voice(s) change

Capital letters represent note length, lowercase letters represent rest lengths


************************************
Добавлено: 24.11.2015
Другие материалы по этой песне:
  • Аккорды и текст

Страница создана 24.11.2015
http://primanota.ru/misc-traditional/phi-mu-alpha-sinfonia-a-serenade-to-a-girl-chords.htm
Привет, Гость.
Предлагаем пройти революционный курс по гитаре.
Подарок от PrimaNota.Ru, забирай!