PrimaNota.ru - самый крупный в мире бесплатный архив песенных текстов, аккордов, табулатур и нот


Misc Traditional - Rockabye Baby - таба

Регистрация Запомнить меня
Войти через:  Facebook Google Twitter Vk Yandex Mail.ru

Misc Traditional - Rockabye Baby - таба

Печатать
Просмотров: 152
-------------------------------------------------------------------------------
                             Rockabye Baby - Traditional
-------------------------------------------------------------------------------
Tabbed by: Matthew Sommerfeldt (MGS22)
E-mail: sommer77@hotmail.com


e|---------------------------------------------------------------------------|
B|------7-5-----------------------8-7-5-5---------------7-5------------------|
G|----------7--------7-6-------4----------7-4---------------7-----7-6--------|
D|--4-7---------4-7----------5----------------7----4-7--------4-7------------|
A|---------------------------------------------------------------------------|
E|---------------------------------------------------------------------------|
                      
                        4x
e|-----------------------|
B|------8-7---5----------|
G|----4-----7---4-6-7---.|
D|--5-------------------.|
A|-----------------------|
E|-----------------------|
Добавлено: 24.11.2015
Другие материалы по этой песне:
  • Аккорды и текст

Страница создана 24.11.2015
http://primanota.ru/misc-traditional/rockabye-baby-chords.htm
Привет, Гость.
Предлагаем пройти революционный курс по гитаре.
Подарок от PrimaNota.Ru, забирай!