PrimaNota.ru - самый крупный в мире бесплатный архив песенных текстов, аккордов, табулатур и нот


Misc Traditional - When Mum Isnt Home - таба, видео

Регистрация Запомнить меня
Войти через:  Facebook Google Twitter Vk Yandex Mail.ru

Misc Traditional - When Mum Isnt Home - таба, видео

Печатать
Просмотров: 163
-------------------------------------------------------------------------------
                             When Mum Isn't Home
-------------------------------------------------------------------------------
Tabbed by: Hans Lindig
E-mail: hali271298@gmail.com

Tuning: Standard

   This is the way it's played in real:
  (The x's mark the oven door. You can also use a school book you don't like
   and smash it on a table or whatever - it's really fun.)
e|-----------------------------------------------------------------|
B|-----------------------------------------------------------------|
G|-----------------------------------------------------------------|
D|-----3-3-3-3-3-----3-3---------------3-3-3-3-3-------------------|
A|---3-----------3-4-----4-3---------3-----------3-4-3-------------|
E|-1-------------------------------1-------------------4-3-1-------|
   x   x   x   x   x   x   x   x   x   x   x   x   x   x   x   x

   I like playing a little variation - in Harmonic E minor:
  (The rhythm stays the same.)
e|----------------------------------------------------------------------------|
B|----------------------------------------------------------------------------|
G|----------------------------------------------------------------------------|
D|----------------------------------------------------------------------------|
A|----------------------------------------------------------------------------|
E|-0-12-12-12-12-12-8-7-8-12-11-8-7-------0-12-12-12-12-12-8-7-8-7-3-2-0------|
   x    x     x     x   x    x    x   x   x    x     x     x   x   x   x   x

   Another way is playing it on the high e string, I think it's simpler that way.
e|-0-12-12-12-12-12-8-7-8-12-11-8-7-------0-12-12-12-12-12-8-7-8-7-----0------|
B|-----------------------------------------------------------------8-7--------|
G|----------------------------------------------------------------------------|
D|----------------------------------------------------------------------------|
A|----------------------------------------------------------------------------|
E|----------------------------------------------------------------------------|
   x    x     x     x   x    x    x   x   x    x     x     x   x   x   x   x

I hope you enjoy this tab!
Добавлено: 24.11.2015
Другие материалы по этой песне:
  • Аккорды и текст

Страница создана 24.11.2015
http://primanota.ru/misc-traditional/when-mum-isnt-home-chords.htm
Привет, Гость.
Предлагаем пройти революционный курс по гитаре.
Подарок от PrimaNota.Ru, забирай!