PrimaNota.ru - самый крупный в мире бесплатный архив песенных текстов, аккордов, табулатур и нот


Misc Traditional - Suvivirsi - таба

Регистрация Запомнить меня
Войти через:  Facebook Google Twitter Vk Yandex Mail.ru

Misc Traditional - Suvivirsi - таба

Печатать
Просмотров: 116
Уроки эстрадного вокала в Санкт-Петербурге
Suvivirsi (Den blomstertid nu kommer)
Tabbed By: Tuomas Lähteenmäki, lhteenmkit@gmail.com

This song is sung in Finnish schools on graduation day. 
It was originally composed by an unknown Swedish composer in 1697. 

The fingerpicking pattern does not follow the exact melody but sounds nice if you want to play a soft 
version of the song. You can also strum the chords. I included Finnish lyrics. 

Tuning: Standard
Time Signature: 4/4
CAPO 1st FRET

Verses 1-6 (Usually just first 3 are sung) 

    D           A           Bm    A     D                       G           D                   
                
e|--2--------2--0--------0--------------2-----------2--------2--3--------3--2--------2h3p2----------2--|
B|-----3-----------2--------3-----2--------3-----3-----3-----------3-----------3-----------3-----3-----|
G|--------2-----------2--------4-----2--------2-----------2-----------0-----------2-----------2--------|
D|--0-----------------------------------0-----------0-----------------------0--------------------------|
A|--------------0-----------2-----0--------------------------------------------------------------------|
E|--------------------------------------------------------------3--------------------------------------|

    D           A           Bm    A     D                       G           D   
                
e|--2--------2--0--------0--------------2-----------2--------2--3--------3--2--------2h3p2----------2--|
B|-----3-----------2--------3-----2--------3-----3-----3-----------3-----------3-----------3-----3-----|
G|--------2-----------2--------4-----2--------2-----------2-----------0-----------2-----------2--------|
D|--0-----------------------------------0-----------0-----------------------0--------------------------|
A|--------------0-----------2-----0--------------------------------------------------------------------|
E|--------------------------------------------------------------3--------------------------------------|

    G           D           A     E     A     D     G           D           A           
    
e|--3--------3--2--------2--0-----0-----0-----2-----3--------3--2--------2--0-----------------------0--|
B|-----3-----------3-----------2-----0-----2-----3-----3-----------3-----------2-----2h3p2-------------|
G|--------0-----------2-----------------------------------0-----------2-----------2--------2-----2-----|
D|--------------0-----------------------------0-----------------0-----------------------------2--------|
A|--------------------------0-----------0-----------------------------------0--------------------------|
E|--3-----------------------------0-----------------3--------------------------------------------------|

    D     A     Bm    F#m   G                 D     G           A           D                   

e|--2-----0-----------------------------------------------------------------2--------2-----------2-----|
B|-----3-----2--3-----2-----0--------0--------------0-----3-----2-----2--------3--------------3--------|
G|-----------------4-----2-----0--------0--------2-----0-----0-----2-----2--------2--------2-----------|
D|--0-----------------------------0--------0--0-----------------------------0-----------0--------------|
A|--------0-----2-----------------------------------------------0--------------------------------------|
E|--------------------2-----3-----------------------3--------------------------------------------------|


1.
   D      A     Bm A D   
Jo joutui armas aika
   D      G     D                       
ja suvi suloinen.
   D      A     Bm A D  
Kauniisti joka paikkaa
   D      G     D                       
koristaa kukkanen.
   G      D     A (E A D)
Nyt siunaustaan suopi
   G      D     A       
taas lämpö auringon,
   D (A Bm F#m) G 
se luonnon uudeks luopi,
(D)G      A     D       
sen kutsuu elohon.

2.
Taas niityt vihannoivat
ja laiho laaksossa.
Puut metsän huminoivat
taas lehtiverhossa.
Se meille muistuttaapi
hyvyyttäs, Jumala,
ihmeitäs julistaapi
se vuosi vuodelta.

3.
Taas linnut laulujansa
visertää kauniisti.
Myös eikö Herran kansa
Luojaansa kiittäisi!
Mun sieluni, sä liitä
myös äänes kuorohon
ja armon Herraa kiitä,
kun laupias hän on.     

4.
Oi Jeesus Kristus jalo
ja kirkas paisteemme,
sä sydäntemme valo,
ain asu luonamme.
Sun rakkautes liekki
sytytä rintaamme,
luo meihin uusi mieli,
pois poista murheemme.

5.
Ei vertaistasi sulle,
sä lilja Saaronin.
Suo armos lahjat mulle
ja kaste Siionin.
Kun Henkes virvoituksen
vain sielu saanut on,
keväisen kaunistuksen
se saa kuin Libanon.

6.
Maan, meren anna kantaa
runsaasti lahjojas,
tarpeemme meille antaa
sun siunauksestas.
Suo suloisuutta maistaa
myös sielun sanassas,
ain armos sille paistaa,
niin on se autuas.
Добавлено: 24.11.2015
Другие материалы по этой песне:
  • Аккорды и текст

Страница создана 24.11.2015
http://primanota.ru/misc-traditional/suvivirsi-chords.htm
Привет, Гость.
Предлагаем пройти революционный курс по гитаре.
Подарок от PrimaNota.Ru, забирай!