PrimaNota.ru - самый крупный в мире бесплатный архив песенных текстов, аккордов, табулатур и нот


Misc Traditional - Swamp Blues - таба, видео

Регистрация Запомнить меня
Войти через:  Facebook Google Twitter Vk Yandex Mail.ru

Misc Traditional - Swamp Blues - таба, видео

Печатать
Просмотров: 109
Уроки эстрадного вокала в Санкт-Петербурге
-------------------------------------------------------------------------------
                             Swamp Blues - Sea Chanty
-------------------------------------------------------------------------------
Tabbed by: ThorChicken
E-mail: privateawesome00@gmail.com

Tuning: Standard

e|---------------------------------------------------------------------------|
B|----------------3----------------------3--5-3-5----------------------------|
G|------------1/4---2-0--------------1/4-------------------------------------|
D|----------------------2-----------------------------------2-2-2---0-2------|
A|----------------------------------------------------------------2----------|
E|---0--0-3-0---------------0--0-3-0---------------0--0-3-0------------------|

e|---------------------------------------------------------------------------|
B|---------------------------------------------------------------------------|
G|--------------2-2-0-------------------------------3/5--5-3-5---------------|
D|--------------------2------------------------------------------------------|
A|---0--0-3-0-------------0--0-3-0--0----------------------------------------|
E|------------------------------------3b---0--0-3-0--------------------------|

e|------------------------------------------1/5-5-5-1/5-5-5-1/5-5-5----------|
B|--------------------------------0---------1/5-5-5-1/5-5-5-1/5-5-5----------|
G|----------------------------1/4---2-0--------------------------------------|
D|------------------------0-------------2------------------------------------|
A|---------------0-1-2--2---2-------------0----------------------------------|
E|---0--0-3-0--3-------------------------------------------------------------|

e|-------------------------3-0-----------------------------------------------|
B|----------------3-5-3-5------3-0-------------------------------------------|
G|------------1/4------------------3/2-0---2-0-------------------------------|
D|---------------------------------------2-----2-0-2-------------------------|
A|-------------------------------------------------2-------------------------|
E|---0--0-3-0--------------------------------------0-------------------------|


************************************

| /   slide up
| \   slide down
| b   Bend

************************************
Добавлено: 24.11.2015
Другие материалы по этой песне:
  • Аккорды и текст

Страница создана 24.11.2015
http://primanota.ru/misc-traditional/swamp-blues-chords.htm
Привет, Гость.
Предлагаем пройти революционный курс по гитаре.
Подарок от PrimaNota.Ru, забирай!