PrimaNota.ru - самый крупный в мире бесплатный архив песенных текстов, аккордов, табулатур и нот


Misc Traditional - Traditional Irish - The Lonesome Boatman - таба, видео

Регистрация Запомнить меня
Войти через:  Facebook Google Twitter Vk Yandex Mail.ru

Misc Traditional - Traditional Irish - The Lonesome Boatman - таба, видео

Печатать
Просмотров: 99
-------------------------------------------------------------------------------
                             SONG NAME - Band Name
-------------------------------------------------------------------------------
Tabbed by:
E-mail:

Tuning:Standard



      Am                             C            Am   
e|-------------------------------------------------------------------------|
B|----5-5--3---5/6\5--3---5------------------------------------------------|
G|-------------------------2---2h4-4/5--5\4---2--4-------------------------|
D|-------------------------------------------------2-----------------------|
A|-------------------------------------------------------------------------|
E|-------------------------------------------------------------------------|
       Am                              C         G         Am
e|-------------------------------------------------------------------------|
B|-----5-5---3---5/6\5---3---5---------------------------------------------|
G|------------------------------2-2h4-4/5--2-2h4-4-2-2-0-0h2---------------|
D|-------------------------------------------------------------------------|
A|-------------------------------------------------------------------------|
E|-------------------------------------------------------------------------|

Repeat as many times as you want

************************************

| /   slide up
| \   slide down
| h   hammer-on
| p   pull-off
| ~   vibrato
| +   harmonic
| x   Mute note
| b   Bend
| pb  Pre-bend
| br  Bend release
| pbr Pre-bend release
| brb Bend release bend

************************************
Добавлено: 14.10.2015
Другие материалы по этой песне:
  • Аккорды и текст

Страница создана 14.10.2015
http://primanota.ru/misc-traditional/traditional-irish-lonesome-boatman-chords.htm
Привет, Гость.
Предлагаем пройти революционный курс по гитаре.
Подарок от PrimaNota.Ru, забирай!