PrimaNota.ru - самый крупный в мире бесплатный архив песенных текстов, аккордов, табулатур и нот


Misc Traditional - Idf Orchestra - Idf March Marsh Zahal - таба

Регистрация Запомнить меня
Войти через:  Facebook Google Twitter Vk Yandex Mail.ru

Misc Traditional - Idf Orchestra - Idf March Marsh Zahal - таба

Печатать
Просмотров: 78
IDF (Israel Army) March   -    a.k.a INDEPENDENCE DAY Hymn


This is a nice happy number...
youtube example - www.youtube.com/watch?v=EMXBPRcrKXM




Intro:

e|--6----------------------5-6-8----8-10-11-13--|
B|-----------------6----8-----------------------|
G|-----------7-7-8------------------------------|
D|------8---------------------------------------|
A|----------------------------------------------|
E|----------------------------------------------|



Main thing:

e|------------10-8-6-5----|--5-6-8----11-10-8-10---|
B|-----11--------------6--|------------------------|
G|--10--------------------|------------------------|
D|------------------------|------------------------|
A|------------------------|------------------------|
E|------------------------|------------------------|


e|-----10----13-11-10-11-----|--6-8-10-------8-6----|
B|--11-------------------11--|----------------------|
G|---------------------------|---------10-----------|
D|---------------------------|----------------------|
A|---------------------------|----------------------|
E|---------------------------|----------------------|




and then:

e|------------|-----------|---------------------|
B|--3---------|-----------|--------------1------|
G|----3-2-0---|----0-2----|----0-2-2-------2-3--|
D|------------|--0-----0--|--0------------------|
A|------------|-----------|---------------------|
E|------------|-----------|---------------------|


e|------------|-----------|----0------0-1-0----|
B|--3---------|--------3--|--3--------------3--|
G|----3-2-0---|----0-2----|------2-------------|
D|------------|--0--------|--------------------|
A|------------|-----------|--------------------|
E|------------|-----------|--------------------|


e|-----------------------|-----------------------|
B|--5-6-----4-3-------3--|----8-----6-5-3---3-5--|
G|--------5-----5-3-5----|--7-----7-------5------|
D|-----------------------|-----------------------|
A|-----------------------|-----------------------|
E|-----------------------|-----------------------|


e|--------------------------------0-1-3---|
B|--1------------------------1--3---------|
G|------------0-2-0-2------3--------------|
D|-----3-2-3------------------------------|
A|----------------------------------------|
E|----------------------------------------|



e|------------10-8-6-5----|--5-6-8----11-10-8-10---|
B|-----11--------------6--|------------------------|
G|--10--------------------|------------------------|
D|------------------------|------------------------|
A|------------------------|------------------------|
E|------------------------|------------------------|


e|-----10----13-11-10-11-----|--6-8-10-------8-6----|
B|--11-------------------11--|----------------------|
G|---------------------------|---------10-----------|
D|---------------------------|----------------------|
A|---------------------------|----------------------|
E|---------------------------|----------------------|

Добавлено: 11.11.2015
Другие материалы по этой песне:
  • Аккорды и текст

Страница создана 11.11.2015
http://primanota.ru/misc-traditional/idf-orchestra-idf-march-marsh-zahal-chords.htm
Привет, Гость.
Предлагаем пройти революционный курс по гитаре.
Подарок от PrimaNota.Ru, забирай!