PrimaNota.ru - самый крупный в мире бесплатный архив песенных текстов, аккордов, табулатур и нот


Misc Traditional - Jerusalem - таба, видео

Регистрация Запомнить меня
Войти через:  Facebook Google Twitter Vk Yandex Mail.ru

Misc Traditional - Jerusalem - таба, видео

Печатать
Просмотров: 83
This is pretty much the the school hymn at the King's School in Peterborough so I learnt the melody by ear 
over the seven-ish years I've been there. I hope you hate it as much as I do!

(just kidding please enjoy it)


e|-----------7--------10--7----------------7---------------------------------|
B|----7--10------------------10-8-10-----------10-8-10-----------------------|
G|-7----------------------------------------------------7--9----7------------|
D|-------------------------------------------------------------------9-------|
A|---------------------------------------------------------------------------|
E|---------------------------------------------------------------------------|

e|-----------7--------10--9--7----7--------7--9------------------------------|
B|----7--10--------------------10----------------7--10--9--7---------10------|
G|-7------------------------------------------------------------9------------|
D|---------------------------------------------------------------------------|
A|---------------------------------------------------------------------------|
E|---------------------------------------------------------------------------|

e|--------------------7------------------------------7------10--8------7-----|
B|-------7--8------------10-------8-----------8--10----------------10--------|
G|-9--9-------------------------9----------9---------------------------------|
D|---------------------------------------------------------------------------|
A|---------------------------------------------------------------------------|
E|---------------------------------------------------------------------------|

e|----7--10--12----10-9----9----7--------------10--7------7------------------|
B|-8------------------------------10-------10---------10-----7---------------|
G|----------------------------------------------------------------9----7-----|
D|---------------------------------------------------------------------------|  end of verse one
A|---------------------------------------------------------------------------|
E|---------------------------------------------------------------------------|

Repeat for verse 2 but end like this:

e|----7--10--12-------10---9----7--------------10--7------7------------------|
B|-8------------------------------10-------10---------10-----7---------------|
G|----------------------------------------------------------------9----7-----|
D|---------------------------------------------------------------------------|
A|---------------------------------------------------------------------------|
E|---------------------------------------------------------------------------|
Добавлено: 24.11.2015
Другие материалы по этой песне:
  • Аккорды и текст

Страница создана 24.11.2015
http://primanota.ru/misc-traditional/jerusalem-chords.htm
Привет, Гость.
Предлагаем пройти революционный курс по гитаре.
Подарок от PrimaNota.Ru, забирай!