PrimaNota.ru - самый крупный в мире бесплатный архив песенных текстов, аккордов, табулатур и нот


Misc Traditional - Paper Of Pins - таба, видео

Регистрация Запомнить меня
Войти через:  Facebook Google Twitter Vk Yandex Mail.ru

Misc Traditional - Paper Of Pins - таба, видео

Печатать
Просмотров: 114
-------------------------------------------------------------------------------
                             Paper Of Pins - American Ballad
-------------------------------------------------------------------------------
Tabbed by: ThorChicken
E-mail: privateawesome00@gmail.com

Tuning: Drop-D

e|----------------0-2-----------------------0---0--0----0-2---0--------------|
B|----------3--3------3--3-0-----------------------3--3-2-3------------------|
G|---2----------------4--4---2--2------2-2----0-----------2------------------|
D|--------4------------------4-------0--------------------0------------------|
A|-------------2-----------------------------------0-------------------------|
E|------0-------------5------0-----4--------2---------------0----------------|

e|------------5----5--2-0----5--5------3-----------5-------------------------|
B|-------3-3-----2----0---3--2-----------0---0-------3-----0--2--3-----------|
G|---------------2----0------2-------0-----0------------2--------2-----------|
D|-----4------4-------0--------------------------0---------------4-----------|
A|---2--------------------------------------------------4-----0--------------|
E|------------------------5--4-----2-----------4-----------5-----0-----------|


************************************
Добавлено: 11.11.2015
Другие материалы по этой песне:
  • Аккорды и текст

Страница создана 11.11.2015
http://primanota.ru/misc-traditional/paper-of-pins-chords.htm
Привет, Гость.
Предлагаем пройти революционный курс по гитаре.
Подарок от PrimaNota.Ru, забирай!