PrimaNota.ru - самый крупный в мире бесплатный архив песенных текстов, аккордов, табулатур и нот


Misc Traditional - How Deep The Fathers Love For Us - таба, видео

Регистрация Запомнить меня
Войти через:  Facebook Google Twitter Vk Yandex Mail.ru

Misc Traditional - How Deep The Fathers Love For Us - таба, видео

Печатать
Просмотров: 57
-------------------------------------------------------------------------------
                How Deep The Father's Love For Us 
-------------------------------------------------------------------------------
Tabbed by:benjamin.nieman
E-mail:benjamin.niemandt@gmail.com

Tuning: Standard

e|---------------------------------------------------------------------------|
B|---------------------------------------------------------------------------|
G|-4-4-0-2-4-2-0-----0-0-0-4-4-2-0-4-0-2-4-2-0-----0-0-0-4-2-0---------------|
D|---------------2-0---------------------------2-0---------------------------|
A|---------------------------------------------------------------------------|
E|---------------------------------------------------------------------------|

e|---------------------------------------------------------------------------|
B|---------------------------------------------------------------------------|
G|-7-7-4-5-7-5-4---7-7-4-5-7-5-4---0-4-0-2-4-2-0-----0-0-0-4-2-0-------------|
D|---------------5---------------7---------------2-0-------------------------|
A|---------------------------------------------------------------------------|
E|---------------------------------------------------------------------------|



************************************

| /   slide up
| \   slide down
| h   hammer-on
| p   pull-off
| ~   vibrato
| +   harmonic
| x   Mute note
| b   Bend
| pb  Pre-bend
| br  Bend release
| pbr Pre-bend release
| brb Bend release bend

************************************
Добавлено: 11.11.2015
Другие материалы по этой песне:
  • Аккорды и текст

Страница создана 11.11.2015
http://primanota.ru/misc-traditional/how-deep-fathers-love-for-us-chords.htm
Привет, Гость.
Предлагаем пройти революционный курс по гитаре.
Подарок от PrimaNota.Ru, забирай!