PrimaNota.ru - самый крупный в мире бесплатный архив песенных текстов, аккордов, табулатур и нот


Misc Traditional - Fsu War Chant - таба, видео

Регистрация Запомнить меня
Войти через:  Facebook Google Twitter Vk Yandex Mail.ru

Misc Traditional - Fsu War Chant - таба, видео

Печатать
Просмотров: 114
Уроки эстрадного вокала в Санкт-Петербурге
-------------------------------------------------------------------------------
                                 FSU War Chant
-------------------------------------------------------------------------------




e|---------------------------------------------------------------------------|
B|----11------9---11-9-----------------9-------------------------------------|
G|---------------------11-----------------11--9----7---9--7------------------|
D|----------------------------------------------------------9----------------|
A|---------------------------------------------------------------------------|
E|---------------------------------------------------------------------------|

Or for bass...


G|---------------------------------------------------------------------------|
D|----4-------2----4-2-----------------2-------------------------------------|
A|---------------------4------------------4--2-----0----2-0------------------|
E|----------------------------------------------------------2----------------|
Добавлено: 03.05.2016
Другие материалы по этой песне:
  • Аккорды и текст

Страница создана 03.05.2016
http://primanota.ru/misc-traditional/fsu-war-chant-chords.htm
Привет, Гость.
Предлагаем пройти революционный курс по гитаре.
Подарок от PrimaNota.Ru, забирай!