PrimaNota.ru - самый крупный в мире бесплатный архив песенных текстов, аккордов, табулатур и нот


Misc Traditional - He Is Born - таба, видео

Регистрация Запомнить меня
Войти через:  Facebook Google Twitter Vk Yandex Mail.ru

Misc Traditional - He Is Born - таба, видео

Печатать
Просмотров: 35
-------------------------------------------------------------------------------
                            he is born - french carol
-------------------------------------------------------------------------------
Tabbed by:
E-mail:
key of F
Tuning:E-A-D-G-B-e

e|-------------------------------------------------------------------------------------|
B|-------------------------------------------------------------------------------------|
G|-----------------2--------------------------------2-3--2---0--------0----------------|
D|---------3---3--------3------3------3----3----3---3-3--3---0-3------2-2--------3---3-|
A|------3-----------------3----------------3----3--------------5--------3-3---3--------|
E|-------------------------------------------------------------------------------------|
chorus he is born the divine christ child play the oboe and bagpipes merrily he is born
e|---------------------------------------------------------------------------|
B|-----------------------------------------------1---------------------------|
G|-2-------------------------------2---3--2---0------------------------------|
D|------3-----3-------3-----3---3--3---3--3---3--2----3----------------------|
A|-------3------------3-----3---3--------------------------------------------|
E|---------------------------------------------------------------------------|
  the divine christ child sing we all of the savior mild
e|---------------------------------------------------------------------------|
B|------------1-------3---1--------------1----3------------------------------|
G|-2------3-----3--3-----------2--3--------------3----2---2--0----2-----3----|
D|-3------2---3-2--3--3---3----3--2------3----3--2----3---3--2----3-----2----|
A|---------------------------------------------------------------------------|
E|---------------------------------------------------------------------------|
  thro' long ages of the past prophets have foretold his coming thro' long 
e|---------------------------------------------------------------------------|
B|1--------3---1------------1----3-------------------------------------------|
G|--3---3-----------2---3------------3---2----0------------------------------|
D|3-2---3--3---3----3---2---3----3---2---3----2------------------------------|
A|---------------------------------------------------------------------------|
E|---------------------------------------------------------------------------|
  ages of the past now the time has come at last
e|---------------------------------------------------------------------------|
B|---------------------------------------------------------------------------|
G|---------------------------------------------------------------------------|
D|---------------------------------------------------------------------------|
A|---------------------------------------------------------------------------|
E|---------------------------------------------------------------------------|

e|---------------------------------------------------------------------------|
B|---------------------------------------------------------------------------|
G|---------------------------------------------------------------------------|
D|---------------------------------------------------------------------------|
A|---------------------------------------------------------------------------|
E|---------------------------------------------------------------------------|

e|---------------------------------------------------------------------------|
B|---------------------------------------------------------------------------|
G|---------------------------------------------------------------------------|
D|---------------------------------------------------------------------------|
A|---------------------------------------------------------------------------|
E|---------------------------------------------------------------------------|

e|---------------------------------------------------------------------------|
B|---------------------------------------------------------------------------|
G|---------------------------------------------------------------------------|
D|---------------------------------------------------------------------------|
A|---------------------------------------------------------------------------|
E|---------------------------------------------------------------------------|


************************************

| /   slide up
| \   slide down
| h   hammer-on
| p   pull-off
| ~   vibrato
| +   harmonic
| x   Mute note
| b   Bend
| pb  Pre-bend
| br  Bend release
| pbr Pre-bend release
| brb Bend release bend

************************************
Добавлено: 03.05.2016
Другие материалы по этой песне:
  • Аккорды и текст

Страница создана 03.05.2016
http://primanota.ru/misc-traditional/he-is-born-chords.htm
Привет, Гость.
Предлагаем пройти революционный курс по гитаре.
Подарок от PrimaNota.Ru, забирай!