PrimaNota.ru - самый крупный в мире бесплатный архив песенных текстов, аккордов, табулатур и нот


Misc Traditional - Reveille - таба, видео

Регистрация Запомнить меня
Войти через:  Facebook Google Twitter Vk Yandex Mail.ru

Misc Traditional - Reveille - таба, видео

Печатать
Просмотров: 73
-------------------------------------------------------------------------------
                             Reveille - Infantry
-------------------------------------------------------------------------------
Tabbed by:Leo Night/periah
E-mail:leonight03@gmail.com and wild_indian_from_outerspace@hotmail.com

Tuning:E A D G B E
This is for Remembrance Day

e|---|-----------|------------|------------|--------|------------|------------|------------|------|
B|---|---5-----5-|----5-----5-|----5-------|-5------|----5-----5-|----5-----5-|----5-------|----5-|
G|---|-5---5-----|-5----5-----|-5----5---5-|----5---|-5----5-----|-5----5-----|-5----5-----|-5----|
D|-5-|-------5---|--------5---|--------5---|------5-|--------5---|--------5---|--------5-5-|------|
A|---|-----------|------------|------------|--------|------------|------------|------------|------|
E|---|-----------|------------|------------|--------|------------|------------|------------|------|

e|-----------|---------------|---------------|---------------|--------------|
B|-5-5-5-5-8-|-5---5---5---5-|---5-5-5-5-5-8-|-5---5---------|------5-----5-|
G|-----------|---5---5---5---|-5-------------|---5---5-----5-|----5---5-----|
D|-----------|---------------|---------------|---------5-5---|-5--------5---|
A|-----------|---------------|---------------|---------------|--------------|
E|-----------|---------------|---------------|---------------|--------------|

e|---|-----------|------------|------------|--------|------------|------------|------------|---|
B|---|---5-----5-|----5-----5-|----5-------|-5------|----5-----5-|----5-----5-|----5-------|---|
G|---|-5---5-----|-5----5-----|-5----5---5-|----5---|-5----5-----|-5----5-----|-5----5-----|-5-|
D|-5-|-------5---|--------5---|--------5---|------5-|--------5---|--------5---|--------5-5-|---|
A|---|-----------|------------|------------|--------|------------|------------|------------|---|
E|---|-----------|------------|------------|--------|------------|------------|------------|---|

************************************

| /   slide up
| \   slide down
| h   hammer-on
| p   pull-off
| ~   vibrato
| +   harmonic
| x   Mute note
| b   Bend
| pb  Pre-bend
| br  Bend release
| pbr Pre-bend release
| brb Bend release bend

************************************
Добавлено: 03.05.2016
Другие материалы по этой песне:
  • Аккорды и текст

Страница создана 03.05.2016
http://primanota.ru/misc-traditional/reveille-chords.htm
Привет, Гость.
Предлагаем пройти революционный курс по гитаре.
Подарок от PrimaNota.Ru, забирай!