PrimaNota.ru - самый крупный в мире бесплатный архив песенных текстов, аккордов, табулатур и нот


Misc Traditional - Porilaisten Marssi - таба

Регистрация Запомнить меня
Войти через:  Facebook Google Twitter Vk Yandex Mail.ru

Misc Traditional - Porilaisten Marssi - таба

Печатать
Просмотров: 39
Porilaisten Marssi

https://www.youtube.com/watch?v=Bw4xuoP8eZ4
                                                                           ------|
e|---------------------------------------------------------------------------|   |
B|-------3---3-4-6--6-6-4-4-4-4-3-3-3-3--------------------------------------|   |
G|-3--5----5----------------------------5-5-5-5-----2------------------------|   |
D|----------------------------------------------3-5--------------------------|   |
A|---------------------------------------------------------------------------|   |
E|---------------------------------------------------------------------------|   |
                                                                                 |- X2
e|---------------------------------------------------------------------------|   |
B|-------3---3-4-6--6-6-4-4-4-4----------------------------------------------|   |
G|-3--5----5--------------------2-2-2-2-3-3-3--------------------------------|   |
D|---------------------------------------------------------------------------|   |
A|---------------------------------------------------------------------------|   |
E|---------------------------------------------------------------------------|   |
                                                                           ------|

                                                                           ------|
e|---------------------------------------------------------------------------|   |
B|-3-3-3-3------------------3------------------------------------------------|   |
G|-----------0-2-3-2-0--------5-5-----------0-2------------------------------|   |
D|---------4-----------3--2-------2-3-3-3-3----------------------------------|   |
A|---------------------------------------------------------------------------|   |
E|---------------------------------------------------------------------------|   |
                                                                                 |- X2
e|---------------------------------------------------------------------------|   |
B|-------3---3-4-6--6-6-4-4-4-4----------------------------------------------|   |
G|-3--5----5--------------------2-2-2-2-3-3-3--------------------------------|   |
D|---------------------------------------------------------------------------|   |
A|---------------------------------------------------------------------------|   |
E|---------------------------------------------------------------------------|   |
                                                                           ------|
Добавлено: 03.05.2016
Другие материалы по этой песне:
  • Аккорды и текст

Страница создана 03.05.2016
http://primanota.ru/misc-traditional/porilaisten-marssi-chords.htm
Привет, Гость.
Предлагаем пройти революционный курс по гитаре.
Подарок от PrimaNota.Ru, забирай!