PrimaNota.ru - самый крупный в мире бесплатный архив песенных текстов, аккордов, табулатур и нот


Misc Traditional - Manhattan Nocturne - таба, видео

Регистрация Запомнить меня
Войти через:  Facebook Google Twitter Vk Yandex Mail.ru

Misc Traditional - Manhattan Nocturne - таба, видео

Печатать
Просмотров: 90
Уроки эстрадного вокала в Санкт-Петербурге
-------------------------------------------------------------------------------
                             Manhattan Nocturne - Misc Traditional
-------------------------------------------------------------------------------
Tabbed by: ThorChicken
E-mail: privateawesome00@gmail.com

Tuning: Drop-D

e|-------------0-2-5----------2p0--------------2-----5-7-------5-------------|
B|-----------0--------------0-----2p0--------0---3-2-------0-------2---------|
G|---------2--------------0----------------2-------------0---0---2---2-------|
D|-------4--------------4----------------4-----------------------------------|
A|-----0----------------------0----------------------------------------------|
E|---0----------------5----------------0---------------5-------4-------------|

e|---3------3-2------------0--------------0-5------2p0-----------------------|
B|-----3------------2--0-----2----------0-----3-2------2-3-0-----------------|
G|-------4--------2------------0------2--------------------------------------|
D|--------------2--------4----------4----------------------------------------|
A|---------------------------0----------------0------------------------------|
E|---2--------4--------5----------0----------------0-------------------------|


************************************

| /   slide up
| \   slide down
| h   hammer-on
| p   pull-off

************************************
Добавлено: 03.05.2016
Другие материалы по этой песне:
  • Аккорды и текст

Страница создана 03.05.2016
http://primanota.ru/misc-traditional/manhattan-nocturne-chords.htm
Привет, Гость.
Предлагаем пройти революционный курс по гитаре.
Подарок от PrimaNota.Ru, забирай!