PrimaNota.ru - самый крупный в мире бесплатный архив песенных текстов, аккордов, табулатур и нот


Misc Traditional - Sing We Now Of Cristmas - таба, видео

Регистрация Запомнить меня
Войти через:  Facebook Google Twitter Vk Yandex Mail.ru

Misc Traditional - Sing We Now Of Cristmas - таба, видео

Печатать
Просмотров: 61
-------------------------------------------------------------------------------
                sing we now of christmas - traditional french tune
-------------------------------------------------------------------------------
Tabbed by:
E-mail:
key of Em or G
Tuning:E-A-D-G-B-e

e|---------------------------------------------------------------------------|
B|------0--2-------0----------0--------------------0----2-------0-----------0|
G|-------------2---0--0----2-2---0-------------------------2----0--0----2--2-|
D|--2---2--2---2------2----2-2---2----4---2---2----2----2--2-------2----2--2-|
A|------------------------------------6--------------------------------------|
E|---------------------------------------------------------------------------|
  sing we now of christmas noel sing we here hear our grateful praises to the 
e|---------------------------------------------------------------------------|
B|---------------------------------------------------------------------------|
G|-0-------------------------------------------------------------------------|
D|-2----4---2----------------------------------------------------------------|
A|------6--------------------------------------------------------------------|
E|---------------------------------------------------------------------------|
  babe so dear 
e|---------------------------------------------------------------------------|
B|-----------------------------------------------0--2-------0-----------0----|
G|--------0----------------0---0------------------------2---0--0-----2-2-0---|
D|--------2---4-2-4--------2---2--4---2-4---2----2--2---2------2-----2-2-2---|
A|------------2-2-6---2-----------2---2-6------------------------------------|
E|---------------------------------------------------------------------------|
chorus: sing we noel the king is born noel sing we now of christmas sing we 
e|---------------------------------------------------------------------------|
B|---------------------------------------------------------------------------|
G|---------------------------------------------------------------------------|
D|-4---2---------------------------------------------------------------------|
A|-6---2---------------------------------------------------------------------|
E|---------------------------------------------------------------------------|
  now noel


************************************

| /   slide up
| \   slide down
| h   hammer-on
| p   pull-off
| ~   vibrato
| +   harmonic
| x   Mute note
| b   Bend
| pb  Pre-bend
| br  Bend release
| pbr Pre-bend release
| brb Bend release bend

************************************
Добавлено: 03.05.2016
Другие материалы по этой песне:
  • Аккорды и текст

Страница создана 03.05.2016
http://primanota.ru/misc-traditional/sing-we-now-of-cristmas-chords.htm
Привет, Гость.
Предлагаем пройти революционный курс по гитаре.
Подарок от PrimaNota.Ru, забирай!