PrimaNota.ru - самый крупный в мире бесплатный архив песенных текстов, аккордов, табулатур и нот


Misc Television - Wwe - Hulk Hogan - Real American - бас-таба, видео

Регистрация Запомнить меня
Войти через:  Facebook Google Twitter Vk Yandex Mail.ru

Misc Television - Wwe - Hulk Hogan - Real American - бас-таба, видео

Печатать
Просмотров: 107
-------------------------------------------------------------------------------
                       Hulk Hogan - Real American - WWE
-------------------------------------------------------------------------------
Tabbed by: Stancranford 
E-mail: simonhawkinsuk@gmail.com

Tuning: EADG

Intro

G|------------------------------|
D|------------------------------|
A|-0-0-0-0-0-0-0-0-0-0-0-12\----|
E|------------------------------|

Verse 1

G|----------------------------------------------------------------|
D|------------------------------------------------------/7\-------|
A|------------------------------0-0-0-0-0-0-0-0-0-0-0-0-----------|
E|-5--3--0-0-2h3--5--3--0-0-2h3-----------------------------0-2-3-|

G|--------------------------------------------------------------|
D|--------------------------------------------------------------|
A|------------------------------0-0-0-0-0-0-0-0-0-0-0-0-0-0-0-0-|
E|-5--3--0-0-2h3--5--3--0-0-2h3---------------------------------|

Bridge

G|-------------------------------------------------------------|
D|-------------------------------------------------------------|
A|-------------------------------------------------------------|
E|-1-1--1-1-1--1--3-3--3-3-3--3--1-1--1-1-1--1--3-3--3-3-3--3--|

Chorus

G|--------------------------------------------------------------------------------------|
D|--------------------------------------------------------------------------------------|
A|-5-5--5-5-5--5-5-5--5-5-5--5-0-0--0-0-0--0-0-0--0-0-0--0-5-5--5-5-5--5-5-5--5-5-5--5\-|
E|--------------------------------------------------------------------------------------|

G|-----------------------------|
D|-----------------------------|
A|-----------------------------|
E|-1-1--1-1-1--1-3-3--3-3-3--3-|

Pre Verse

G|---------------------------------------------------------------------|
D|---------------------------------------------------------------------|
A|-0-0-0-0-0-0-0-0-0-0-0-0-0-------0-0-0-0-0-0-0-0-0-0-0-0-0-0-0-12\---|
E|---------------------------0-2-3-------------------------------------|

Verse 2

G|--------------------------------------------------------------|
D|--------------------------------------------------------------|
A|------------------------------0-0-0-0-0-0-0-0-0-0-0-0---------|
E|-5--3--0-0-2h3--5--3--0-0-2h3-------------------------x-0-2-3-|

G|--------------------------------------------------------------|
D|--------------------------------------------------------------|
A|------------------------------0-0-0-0-0-0-0-0-0-0-0-0-0-0-0-0-|
E|-5--3--0-0-2h3--5--3--0-0-2h3---------------------------------|

Guitar Solo

G|------------------------------------------------------------------|
D|------------------------------------------------------------------|
A|----------------------------------0-0-0-0-0-0-0-0-0-0-0-0-0-0-0-0-|
E|-5-5-3-3-0-0-2h3--5-5-3-3-0-0-2h3---------------------------------|

Order:
Guitar Intro
Intro x 1
Verse 1 x 1
Bridge x 1
Chorus x 1
Pre Verse x 1
Verse 2 x 1
Bridge x 1
Chorus x 2
Guitar Solo x 2
Bridge x 1
Chorus to fade out


| /  slide up
| \  slide down
| h  hammer-on
| x  Mute note
===============================================================================
Добавлено: 08.09.2015
Другие материалы по этой песне:
  • Аккорды и текст

Страница создана 08.09.2015
http://primanota.ru/misc-television/wwe-hulk-hogan-real-american-chords.htm
Привет, Гость.
Предлагаем пройти революционный курс по гитаре.
Подарок от PrimaNota.Ru, забирай!