PrimaNota.ru - самый крупный в мире бесплатный архив песенных текстов, аккордов, табулатур и нот


Misc Television - Wwe - Road Dogg - Oh You Didnt Know - бас-таба, видео

Регистрация Запомнить меня
Войти через:  Facebook Google Twitter Vk Yandex Mail.ru

Misc Television - Wwe - Road Dogg - Oh You Didnt Know - бас-таба, видео

Печатать
Просмотров: 88
-------------------------------------------------------------------------------
                   Road Dogg - Oh, You Didn't Know? - WWE
-------------------------------------------------------------------------------
Tabbed by: Stancranford
E-mail: simonhawkinsuk@gmail.com

Tuning: EADG

Main Riff

G|--------------|
D|--------------|
A|--------------|
E|-0--0--3^--0--|

Chorus
                   x3
G|--------------------|----------------|
D|--------------------|----------------|
A|-3--3-3-------------|-3--3-3---------|
E|--------3--3-3--0-0-|--------3--3-3--|

Breakdown
                                x3
G|---------------------------------|---------------------------------|
D|---------------------------------|---------------------------------|
A|-----------------5-5-7p5---------|-----------------2-2-2-2-2-2-2-2-|
E|-5-5-3h5-5-5-3h5---------0-0-3p0-|-5-5-3h5-5-5-3h5-----------------|

Order:
Guitar Intro
Main Riff x 1 |
Rest          |
Main Riff x 1 |
Rest          | Loop Until End
Main Riff x 8 |
Chorus x 1    |
Breakdown x 1 |


| h  hammer-on
| p  pull-off
| ^  bend up

===============================================================================
Добавлено: 08.09.2015
Другие материалы по этой песне:
  • Аккорды и текст

Страница создана 08.09.2015
http://primanota.ru/misc-television/wwe-road-dogg-oh-you-didnt-know-chords.htm
Привет, Гость.
Предлагаем пройти революционный курс по гитаре.
Подарок от PrimaNota.Ru, забирай!