PrimaNota.ru - самый крупный в мире бесплатный архив песенных текстов, аккордов, табулатур и нот


Misc Television - Sherlock Theme - таба, видео

Регистрация Запомнить меня
Войти через:  Facebook Google Twitter Vk Yandex Mail.ru

Misc Television - Sherlock Theme - таба, видео

Печатать
Просмотров: 124
Уроки эстрадного вокала в Санкт-Петербурге
-------------------------------------------------------------------------------
                             SHERLOCK BBC THEME
-------------------------------------------------------------------------------
Tabbed by: aawwwf4u
E-mail: aawwwf4u@gmail.com

Tuning: Standard

************************************

| /   slide up
| h   hammer-on
| p   pull-off

************************************

e|--------------------------------|
B|----------------------------13--|
G|-------12-12-11h12/13-12-10-----|
D|----10--------------------------|
A|--------------------------------|
E|--------------------------------|

e|-------------------------11--|
B|-------13-13-12h13/15-13-----|
G|----10-----------------------|
D|-----------------------------|
A|-----------------------------|
E|-----------------------------|

e|----15-------------------------13-----|
B|-------13-13-15-16-15h16p15-13----13--|
G|--------------------------------------|
D|--------------------------------------|
A|--------------------------------------|
E|--------------------------------------|

e|----------------------------------------------------------|
B|----12-14-15---15-17-14---14-16-13---13-15-12---12----13--|
G|---------------------------------------------------13-----|
D|----------------------------------------------------------|
A|----------------------------------------------------------|
E|----------------------------------------------------------|

   Play the last 2 parts twice. Enjoy. :)
Добавлено: 29.09.2015
Другие материалы по этой песне:
  • Аккорды и текст

Страница создана 29.09.2015
http://primanota.ru/misc-television/sherlock-theme-chords.htm
Привет, Гость.
Предлагаем пройти революционный курс по гитаре.
Подарок от PrimaNota.Ru, забирай!