PrimaNota.ru - самый крупный в мире бесплатный архив песенных текстов, аккордов, табулатур и нот


Misc Television - The Fresh Prince Of Bel Air - таба, видео

Регистрация Запомнить меня
Войти через:  Facebook Google Twitter Vk Yandex Mail.ru

Misc Television - The Fresh Prince Of Bel Air - таба, видео

Печатать
Просмотров: 78
-------------------------------------------------------------------------------------------------
  Misc Televeision -  The Fresh Prince of Bel Air (Theme) - DJ Jazzy Jeff & The Fresh Prince
-------------------------------------------------------------------------------------------------

Tabbed by: Apollonia93
Tuning: Standard guitar - EADGBe

Tab legend: p = pull off, / = slide up, ~ = vibrato

This bassline opens the song and is played throughout the entire track.

e|--------------------------------------------------------|
B|--------------------------------------------------------|
G|--------------------------------------------------------|
D|--------------------------------------------------------|
A|---6-----4--6----6----4--6--------4--6----6--------4-6--|
E|------6------------6----------6-------------6-6-6-------|

Once Will starts rapping, you can play this as four chords 
in the same rhythm as the bassline:


   D#m  A#m C# D#m     D#m A#m C# D#m    A#m  C#m D#m   D#m  A#m   C#m  D#m

e|--6---6---4---6--  --6---6---4---6--  --6---4---6--  --6---6-6-6--4---6--|
B|--7---6---6---7--  --7---6---6---7--  --6---6---7--  --7---6-6-6--6---7--|
G|--8---6---6---8--  --8---8---6---8--  --6---6---8--  --8---8-8-8--6---8--|
D|--8---8---6---8--  --8---8---6---8--  --8---6---8--  --8---8-8-8--6---8--|
A|--6---8---4---6--  --6---8---4---6--  --8---4---6--  --6---8-8-8--4---6--|
E|--6---6---4---6--  --6---6---4---6--  --6---4---6--  --6---6-6-6--4---6--|


The synthesizer lead part:

e|--6~--------------|
B|------9-9p7-------|
G|------------8-8~--|
D|------------------|
A|------------------|
E|------------------|

e|------------|
B|------7-9~--|
G|-/6-8-------|
D|------------|
A|------------|
E|------------|
Добавлено: 29.09.2015
Другие материалы по этой песне:
  • Аккорды и текст

Страница создана 29.09.2015
http://primanota.ru/misc-television/fresh-prince-of-bel-air-chords.htm
Привет, Гость.
Предлагаем пройти революционный курс по гитаре.
Подарок от PrimaNota.Ru, забирай!