PrimaNota.ru - самый крупный в мире бесплатный архив песенных текстов, аккордов, табулатур и нот


Misc Television - The Key Of Awesome - Holy Shit Im Playing All Of The Parts - таба, видео

Регистрация Запомнить меня
Войти через:  Facebook Google Twitter Vk Yandex Mail.ru

Misc Television - The Key Of Awesome - Holy Shit Im Playing All Of The Parts - таба, видео

Печатать
Просмотров: 89
-------------------------------------------------------------------------------
        Holy Shit I'm Playing All of the Parts - Key of Awesome
-------------------------------------------------------------------------------
Tabbed by: abagofcheetos
E-mail: imapokemontrainer@gmail.com

Tuning: Standard

Always thought it was a sweet riff.
I'm guessing I have the timing down pretty close but listen to it and nail it down yourself.


e|----------------------------------------------------------------------------|
B|-------------------13-12----------------------------------------------------|
G|-12-11-------------------12-12-12-12-12-12----12-14-14-14-14-14-14----14-16-|
D|-------12~--12/14~-------------------------12----------------------12-------|
A|----------------------------------------------------------------------------|
E|----------------------------------------------------------------------------|

e|-------------------15-14----------------------14----------------------17-15~|
B|-------------------------------------------------15-15-15-15-15-15----------|
G|-16-16-16-16-16-12-------14/16-16-16-16-16-12----------------------16-------|
D|----------------------------------------------------------------------------|
A|----------------------------------------------------------------------------|
E|----------------------------------------------------------------------------|

e|-14-------------------------------------------------------------------------|
B|----15~-17------------------------------------------------------------------|
G|-----------16~~~---17-16-12~~~~~~~------------------------------------------|
D|----------------------------------------------------------------------------|
A|----------------------------------------------------------------------------|
E|----------------------------------------------------------------------------|

************************************

| /   slide up
| \   slide down
| h   hammer-on
| p   pull-off
| ~   vibrato
| +   harmonic
| x   Mute note
| b   Bend
| pb  Pre-bend
| br  Bend release
| pbr Pre-bend release
| brb Bend release bend

************************************
Добавлено: 29.09.2015
Другие материалы по этой песне:
  • Аккорды и текст

Страница создана 29.09.2015
http://primanota.ru/misc-television/key-of-awesome-holy-shit-im-playing-all-of-parts-chords.htm
Привет, Гость.
Предлагаем пройти революционный курс по гитаре.
Подарок от PrimaNota.Ru, забирай!