PrimaNota.ru - самый крупный в мире бесплатный архив песенных текстов, аккордов, табулатур и нот


Misc Television - Wwe - Hallelujah - Damien Sandow - таба

Регистрация Запомнить меня
Войти через:  Facebook Google Twitter Vk Yandex Mail.ru

Misc Television - Wwe - Hallelujah - Damien Sandow - таба

Печатать
Просмотров: 113
Уроки эстрадного вокала в Санкт-Петербурге
Drop C Tuning (CGCFAD)

there are some missing parts that I will write sometime

D----------------------|
A----------------------|
F----------------------|
C------------------2-4-|  X3
G--------------2-4-----|
C-4-4-7-4--4-7---------|

D----------------------|
A----------------------|
F----------------------|
C----------------------|
G----------------------|
C-4-4-7-4--4-7-4-4-----|


D------------------------------------------------|
A------------------------------------------------|
F-------------------------4--4--4--4--4--4--4--4-|
C-4--4--4--4--7--7--7--7--4--4--4--4--4--4--4--4-|
G-4--4--4--4--7--7--7--7--2--2--2--2--2--2--2--2-|
C-4--4--4--4--7--7--7--7-------------------------|

D------------------------------------------------|
A------------------------------------------------|
F-------------------------6--6--6--6--6--6--6--6-|
C-4--4--4--4--7--7--7--7--6--6--6--6--6--6--6--6-|
G-4--4--4--4--7--7--7--7--4--4--4--4--4--4--4--4-|
C-4--4--4--4--7--7--7--7-------------------------|

D----------------------|
A----------------------|
F----------------------|
C------------------2-4-|  X8
G--------------2-4-----|
C-4-4-7-4--4-7---------|


D----------------------|
A----------------------|
F----------------------|
C-7----9-9---7---------|
G-7----9-9---7---------|
C-7----9-9---7---------|

D------------------------------------------------|
A------------------------------------------------|
F-------------------------4--4--4--4--4--4--4--4-|
C-4--4--4--4--7--7--7--7--4--4--4--4--4--4--4--4-|
G-4--4--4--4--7--7--7--7--2--2--2--2--2--2--2--2-|
C-4--4--4--4--7--7--7--7-------------------------|

D------------------------------------------------|
A------------------------------------------------|
F-------------------------6--6--6--6--6--6--6--6-|
C-4--4--4--4--7--7--7--7--6--6--6--6--6--6--6--6-|
G-4--4--4--4--7--7--7--7--4--4--4--4--4--4--4--4-|
C-4--4--4--4--7--7--7--7-------------------------|

D------------------------------------------------|
A------------------------------------------------|
F-------------------------4--4--4--4--4--4--4--4-|
C-4--4--4--4--7--7--7--7--4--4--4--4--4--4--4--4-|
G-4--4--4--4--7--7--7--7--2--2--2--2--2--2--2--2-|
C-4--4--4--4--7--7--7--7-------------------------|

D------------------------------------------------|
A------------------------------------------------|
F-------------------------6--6--6--6--6--6--6--6-|
C-4--4--4--4--7--7--7--7--6--6--6--6--6--6--6--6-|
G-4--4--4--4--7--7--7--7--4--4--4--4--4--4--4--4-|
C-4--4--4--4--7--7--7--7-------------------------|

D----------------------|
A----------------------|
F----------------------|
C------------------2-4-|  X8
G--------------2-4-----|
C-4-4-7-4--4-7---------|

D----------------------|
A----------------------|
F----------------------|
C-7----9-9---7---------|
G-7----9-9---7---------|
C-7----9-9---7---------|

D------------------------------------------------|
A------------------------------------------------|
F-------------------------4--4--4--4--4--4--4--4-|
C-4--4--4--4--7--7--7--7--4--4--4--4--4--4--4--4-|
G-4--4--4--4--7--7--7--7--2--2--2--2--2--2--2--2-|
C-4--4--4--4--7--7--7--7-------------------------|

D------------------------------------------------|
A------------------------------------------------|
F-------------------------6--6--6--6--6--6--6--6-|
C-4--4--4--4--7--7--7--7--6--6--6--6--6--6--6--6-|
G-4--4--4--4--7--7--7--7--4--4--4--4--4--4--4--4-|
C-4--4--4--4--7--7--7--7-------------------------|

D------------------------------------------------|
A------------------------------------------------|
F-------------------------4--4--4--4--4--4--4--4-|
C-4--4--4--4--7--7--7--7--4--4--4--4--4--4--4--4-|
G-4--4--4--4--7--7--7--7--2--2--2--2--2--2--2--2-|
C-4--4--4--4--7--7--7--7-------------------------|

D------------------------------------------------|
A------------------------------------------------|
F-------------------------6--6--6--6--6--6--6--6-|
C-4--4--4--4--7--7--7--7--6--6--6--6--6--6--6--6-|
G-4--4--4--4--7--7--7--7--4--4--4--4--4--4--4--4-|
C-4--4--4--4--7--7--7--7-------------------------|

D----------------------|
A----------------------|
F----------------------|
C------------------2-4-|  X4
G--------------2-4-----|
C-4-4-7-4--4-7---------|

D------------------------------------------------|
A------------------------------------------------|
F-------------------------4--4--4--4--4--4--4--4-|
C-4--4--4--4--7--7--7--7--4--4--4--4--4--4--4--4-|
G-4--4--4--4--7--7--7--7--2--2--2--2--2--2--2--2-|
C-4--4--4--4--7--7--7--7-------------------------|

D------------------------------------------------|
A------------------------------------------------|
F-------------------------6--6--6--6--6--6--6--6-|
C-4--4--4--4--7--7--7--7--6--6--6--6--6--6--6--6-|
G-4--4--4--4--7--7--7--7--4--4--4--4--4--4--4--4-|
C-4--4--4--4--7--7--7--7-------------------------|

D----------------------|
A----------------------|
F----------------------|
C------------------2-4-|  X8
G--------------2-4-----|
C-4-4-7-4--4-7---------|

D----------------------|
A----------------------|
F----------------------|
C-7----9-9---7---------|
G-7----9-9---7---------|
C-7----9-9---7---------|

D------------------------------------------------|
A------------------------------------------------|
F-------------------------4--4--4--4--4--4--4--4-|
C-4--4--4--4--7--7--7--7--4--4--4--4--4--4--4--4-|
G-4--4--4--4--7--7--7--7--2--2--2--2--2--2--2--2-|
C-4--4--4--4--7--7--7--7-------------------------|

D------------------------------------------------|
A------------------------------------------------|
F-------------------------6--6--6--6--6--6--6--6-|
C-4--4--4--4--7--7--7--7--6--6--6--6--6--6--6--6-|
G-4--4--4--4--7--7--7--7--4--4--4--4--4--4--4--4-|
C-4--4--4--4--7--7--7--7-------------------------|

D------------------------------------------------|
A------------------------------------------------|
F-------------------------4--4--4--4--4--4--4--4-|
C-4--4--4--4--7--7--7--7--4--4--4--4--4--4--4--4-|
G-4--4--4--4--7--7--7--7--2--2--2--2--2--2--2--2-|
C-4--4--4--4--7--7--7--7-------------------------|

D------------------------------------------------|
A------------------------------------------------|
F-------------------------6--6--6--6--6--6--6--6-|
C-4--4--4--4--7--7--7--7--6--6--6--6--6--6--6--6-|
G-4--4--4--4--7--7--7--7--4--4--4--4--4--4--4--4-|
C-4--4--4--4--7--7--7--7-------------------------|
Добавлено: 29.09.2015
Другие материалы по этой песне:
  • Аккорды и текст

Страница создана 29.09.2015
http://primanota.ru/misc-television/wwe-hallelujah-damien-sandow-chords.htm
Привет, Гость.
Предлагаем пройти революционный курс по гитаре.
Подарок от PrimaNota.Ru, забирай!