PrimaNota.ru - самый крупный в мире бесплатный архив песенных текстов, аккордов, табулатур и нот


Misc Television - Wwe - Written In The Stars - Stardust - таба

Регистрация Запомнить меня
Войти через:  Facebook Google Twitter Vk Yandex Mail.ru

Misc Television - Wwe - Written In The Stars - Stardust - таба

Печатать
Просмотров: 80
Drop C Tuning (CGCFAD)

Intro
D---------------------------------------|
A---------------------------------------|
F---------------------------------------|
C-0--2-3---5--7-8---12--10-8--10-7--8-7-|  X2
G-0--2-3---5--7-8---12--10-8--10-7--8-7-|
C-0--2-3---5--7-8---12--10-8--10-7--8-7-|


D--------------|
A--------------|
F--------------|
C-12-12--12-12-|  X4
G-12-12--12-12-|
C-12-12--12-12-|


Verse
D----------------------------|
A----------------------------|
F----------------------------|
C-5\3-5-0----5\3-5-----------|
G------------------0----/12\-|
C----------------------------|

Just repeat it (:
Добавлено: 29.09.2015
Другие материалы по этой песне:
  • Аккорды и текст

Страница создана 29.09.2015
http://primanota.ru/misc-television/wwe-written-in-stars-stardust-chords.htm
Привет, Гость.
Предлагаем пройти революционный курс по гитаре.
Подарок от PrimaNota.Ru, забирай!