PrimaNota.ru - самый крупный в мире бесплатный архив песенных текстов, аккордов, табулатур и нот


Misc Television - I Believe In Christmas - бас-таба, видео

Регистрация Запомнить меня
Войти через:  Facebook Google Twitter Vk Yandex Mail.ru

Misc Television - I Believe In Christmas - бас-таба, видео

Печатать
Просмотров: 28
-------------------------------------------------------------------------------
                             I Believe In Christmas - The Tweenies
-------------------------------------------------------------------------------
Tabbed by: Selorm Torkornoo 
E-mail: selorm23@outlook.com

Tuning: Standard

Intro:
G|---------------------------------------------------------------------------|
D|---------------------------------------------------------------------------|
A|---------------------------------------------------------------------------| x2
E|-4-4-1-4-4-1---------------------------------------------------------------|

Verse 1:
G|---------------------------------------------------------------------------|
D|---------------------------------------------------------------------------|
A|-----1-6-------------------------------------------------------------------| x2
E|-4-1-----------------------------------------------------------------------|

Chorus:
G|---------------------------------------------------------------------------|
D|---------------------------------------------------------------------------|
A|----1-66-44-3431-----------------------------------------------------------| x2
E|-4-1-----------------------------------------------------------------------|

Verse 2:
G|---------------------------------------------------------------------------|
D|---------------------------------------------------------------------------|
A|-----1-6-------------------------------------------------------------------| x2
E|-4-1-----------------------------------------------------------------------|

Chorus:
G|---------------------------------------------------------------------------|
D|---------------------------------------------------------------------------|
A|----1-66-44-3431-----------------------------------------------------------| x2
E|-4-1-----------------------------------------------------------------------|

Bridge:
G|---------------------------------------------------------------------------|
D|---------------------------------------------------------------------------|
A|-1-3-4-6-------------------------------------------------------------------| x2
E|---------------------------------------------------------------------------|

Intro:
G|---------------------------------------------------------------------------|
D|---------------------------------------------------------------------------|
A|---------------------------------------------------------------------------| x2
E|-4-4-1-4-4-1---------------------------------------------------------------|

Chorus:
G|---------------------------------------------------------------------------|
D|---------------------------------------------------------------------------|
A|----1-66-44-3431-----------------------------------------------------------| x2
E|-4-1-----------------------------------------------------------------------|

===============================================================================
Добавлено: 15.03.2016
Другие материалы по этой песне:
  • Аккорды и текст

Страница создана 15.03.2016
http://primanota.ru/misc-television/i-believe-in-christmas-chords.htm
Привет, Гость.
Предлагаем пройти революционный курс по гитаре.
Подарок от PrimaNota.Ru, забирай!