PrimaNota.ru - самый крупный в мире бесплатный архив песенных текстов, аккордов, табулатур и нот


Misc Soundtrack - I Will Follow Him - бас-таба, видео

Регистрация Запомнить меня
Войти через:  Facebook Google Twitter Vk Yandex Mail.ru

Misc Soundtrack - I Will Follow Him - бас-таба, видео

Печатать
Просмотров: 51
---------------------------------------------------------------------
                  I Will Follow Him - Sister Act
---------------------------------------------------------------------
Tabbed by: RagnaarMN
Tuning: Standard


  Slow                                       I will
G|----------------|----------------|----------------|
D|----------------|----------------|----------------|
A|----------------|1---------------|----------------|
E|3---------------|----------------|3---------------|

  Him                               He
G|----------------|----------------|----------------|----------------|
D|----------------|0---------------|----------------|----------------|
A|1---------------|----------------|----------------|----------------|
E|----------------|----------------|1---------------|1---------------|

  Near             Be               Nothing          way
G|----------------|----------------|----------------|----------------|
D|----------------|----------------|----------------|----------------|
A|----------------|----------------|----------------|----------------|
E|3---------------|1---------------|3---------------|1---------------|

  Destiny                           Him
G|----------------|----------------|----------------|----------------|
D|----------------|----------------|----------------|0---------------|
A|1---------------|----------------|1---------------|----------------|
E|----------------|3---------------|----------------|----------------|

  Heart                             Isn't            Deep
G|----------------|----------------|----------------|----------------|
D|----------------|0---------------|----------------|----------------|
A|----------------|----------------|----------------|----------------|
E|1---------------|----------------|3---------------|1---------------|

  Mountain         Keep             way
G|----------------|----------------|----------------|----------------|
D|----------------|1---------------|----------------|----------------|
A|----------------|----------------|1---------------|----------------|
E|3---------------|----------------|----------------|1---------------|

  Away
G|----------------|----------------|----------------|
D|0---------------|----------------|----------------|
A|----------------|----------------|1---------------|
E|----------------|----------------|----------------|

  Fast
G|----------------|----------------|----------------|----------------|
D|----------------|----------------|----------------|----------------|
A|----------------|----------------|1-------1-------|1-------1-------|
E|3---3---3---3---|3---3---3---3---|------3---------|------3---------|

G|----------------|----------------|----------------|----------------|
D|------1---------|----------------|----------------|----------------|
A|0-------0-------|0---1-----------|2-------2-------|2-------2-------|
E|----------------|----------------|------4---------|------4---------|

G|----------------|----------------|----------------|----------------|
D|1-------1-------|1-------1-------|----------------|1-------1-------|
A|------1---------|------1---------|------1---------|------1---------|
E|----------------|----------------|4-------4-------|----------------|

G|----------------|----------------|----------------|----------------|
D|----------------|----------------|----------------|----------------|
A|------2---------|------4---------|2-------2-------|----------------|
E|0-------0-------|2-------2-------|------1---------|3---3---3---3---|

G|----------------|----------------|----------------|----------------|
D|----------------|----------------|----------------|----------------|
A|3-------3-------|3-------3-------|------2---------|------2---------|
E|------3---------|------3---------|0-------0-------|0-------0-------|

G|----------------|----------------|----------------|----------------|
D|----------------|----------------|----------------|0---------------|
A|0-------0-------|------2---------|------3---------|----------------|
E|------0---------|0-------0-------|1-------1-------|--------3---3---|

G|----------------|----------------|----------------|----------------|
D|----------------|----------------|----------------|----------------|
A|3---------------|------0---------|3-------3-------|----------------|
E|------------0---|3-------3-------|------3---------|3---3---3---3---|

G|----------------|----------------|----------------|----------------|
D|----------------|----------------|----------------|----------------|
A|3-------3-------|3-------3-------|0-------0-------|0-------0-------|
E|------3---------|------3---------|------0---------|------3---------|


G|----------------|----------------|----------------|----------------|
D|----------------|----------------|----------------|----------------|
A|3-------3-------|3-------3-------|0-------0-------|0-------0-------|
E|------3---------|------3---------|------0---------|------3---------|


G|----------------|----------------|----------------|----------------|
D|----------------|----------------|----------------|----------------|
A|3-------3-------|3-------3-------|0-------0-------|0-------0-------|
E|------3---------|------3---------|------0---------|------3---------|

G|----------------|----------------|----------------|----------------|
D|----------------|----------------|----------------|----------------|
A|3-------3-------|3-------3-------|3-------3-------|0-------0-------|
E|------3---------|------3---------|------3---------|------0---------|

G|----------------|----------------|----------------|----------------|
D|----------------|----------------|----------------|----------------|
A|0---0---0---0---|------3---------|------2---------|------3---------|
E|----------------|1-------1-------|0-------0-------|1-------1-------|

G|----------------|----------------|----------------|----------------|
D|0---------------|----------------|----------------|----------------|
A|----------------|3-------3-------|0-------3---3---|----------------|
E|--------3---3---|------3---------|----------------|1---------------|

G|----------------|
D|----------------|
A|3---------------|
E|----------------|

This version is simplified. Young Nun's solo sung by Andrea Robinson. 
Credit to Nicolò D'Ignazio

======================================================================
Добавлено: 03.05.2016
Другие материалы по этой песне:
  • Аккорды и текст

Страница создана 03.05.2016
http://primanota.ru/misc-soundtrack/i-will-follow-him-chords.htm
Привет, Гость.
Предлагаем пройти революционный курс по гитаре.
Подарок от PrimaNota.Ru, забирай!