PrimaNota.ru - самый крупный в мире бесплатный архив песенных текстов, аккордов, табулатур и нот


Misc Soundtrack - The Hanging Tree - таба, видео

Регистрация Запомнить меня
Войти через:  Facebook Google Twitter Vk Yandex Mail.ru

Misc Soundtrack - The Hanging Tree - таба, видео

Печатать
Просмотров: 160
Уроки эстрадного вокала в Санкт-Петербурге
-------------------------------------------------------------------------------
                             The Hanging Tree - James Newton Howard
-------------------------------------------------------------------------------
Tabbed by: LainMJ
E-mail: cel_lain@hotmail.com

A Tab by my Youtube cover; https://www.youtube.com/watch?v=iG5A0Xq-JLI
A live version with movie is coming around 29th of March 2015! Please check out my covers and send me
an email if you wanna use this tab for covers first!

Tuning: Standard

Only Guitar 1x
e|---------------------------------------------------------------------------------------------|
B|------1-3-------------------1-3-------------3/5-3-1-3-1---------------------1-3--------------|
G|--0-2-----2-2-2-0-----0-2-2-----0-2-2-2-0-2-------------2-0-2-2-2-0-----0-2-----0-2-2-2-0-2--|
D|------------------2-------------------------------------------------2------------------------|
A|---------------------------------------------------------------------------------------------|
E|---------------------------------------------------------------------------------------------|


Singing Starts with 1st verse
 Are you, are you..... Strung up a man...
e|---------------------------------------------------------------------------------------------|
B|------1-3-------------------1-3-------------3/5-3-1-3-1---------------------1-3--------------|
G|--0-2-----2-2-2-0-----0-2-2-----0-2-2-2-0-2-------------2-0-2-2-2-0-----0-2-----0-2-2-2-0-2--|
D|------------------2-------------------------------------------------2------------------------|
A|--------------------------------------------------------------------------0---0---0-------0--|
E|---------------------------------------------------------------------------------------------|

2nd Vers: Are you..... Dead man called out
e|----------------------------------------------------3----------------------------------------------|
B|--------1-3-3-3/4-3-1----------1-3-3-3/4-3-1----3/5--5-3-1------------------------1-3--------------|
G|--0-2-2----------------2-0-2-2---------------2-------------2-0-2-2-2-0-----0--2-------0-2-2-2-0-2--|
D|-----------------------------------------------------------------------2---------------------------|
A|----0-----0---0--------0---0-----0---0-------0--0--------------0--------------0-----0---0-------0--|
E|---------------------------------------------------------------------------------------------------|


3rd Verse: Are you.... Where I told you to run
     Am    Dm    Am      E       Am   F    G       Am
e|---------1-1------------------------1-1--------------------------------------|
B|---1---1-3-----1---1---0---0---1--1-1----0---0---1---1-----------------------|
G|-0-2-2-------0-2-2---0-1-1-----2-2-----0-2-2---0-2-2-------------------------|
D|---------0--------------------------3----------------------------------------|
A|---0-----------0---------------0-----------------0---------------------------|
E|-----------------------0-----------------3-----------------------------------|


4th Verse: Are you... wear a necklace of hope
   Am    Dm       Am      D       Am    Dm   E      Am
e|-------1----------------2-2-----------1-1------------------------------------|
B|-1-3-1-3-1------1---1---3-------1---1-3----0--0---1--------------------------|
G|-2---------2-0--2-2---0-------0-2-2------0-1-1--0-2--------------------------|
D|-------0----------------0-------------0--------------------------------------|
A|-0--------------0---------------0-----------------0--------------------------|
E|-------------------------------------------0---------------------------------|

Repeat: 1st, 2nd, 3th and 4th verse

Repeat as long as you want and you can build up the song by playing louder and louder! 
Hammer-ons are pretty
cool in this song just try things out!


************************************

| /   slide up
| \   slide down
| h   hammer-on
| p   pull-off
| ~   vibrato
| +   harmonic
| x   Mute note
| b   Bend
| pb  Pre-bend
| br  Bend release
| pbr Pre-bend release
| brb Bend release bend

************************************
Добавлено: 17.09.2015
Другие материалы по этой песне:
  • Аккорды и текст

Страница создана 17.09.2015
http://primanota.ru/misc-soundtrack/hanging-tree-chords.htm
Привет, Гость.
Предлагаем пройти революционный курс по гитаре.
Подарок от PrimaNota.Ru, забирай!