PrimaNota.ru - самый крупный в мире бесплатный архив песенных текстов, аккордов, табулатур и нот


Misc Soundtrack - The Last Of Us - Main Theme - таба, видео

Регистрация Запомнить меня
Войти через:  Facebook Google Twitter Vk Yandex Mail.ru

Misc Soundtrack - The Last Of Us - Main Theme - таба, видео

Печатать
Просмотров: 97
-------------------------------------------------------------------------------
               The Last Of Us - Gustavo Santaolalla
-------------------------------------------------------------------------------
Tabbed by: Mustafa Ahmed
E-mail: Nero.sparda115@gmail.com
https://www.facebook.com/Chris.Elysium115

Tuning: Standard 

e|--3--0--5--2--3--3--3--3-------|
B|-------------------------------|
G|-------------------------------| 
D|-------------------------------|  
A|-------------------------------|
E|-------------------------------|

e|--3--0--5--2--3/7--7--7--7-----|
B|-------------------------------|
G|-------------------------------|
D|-------------------------------|
A|-------------------------------|
E|-------------------------------|

e|--3--3--3--3--3--3--3--3-------|
B|---0--0--0--0--0--0--0--0------|
G|----0--0--0--0--0--0--0--0-----|
D|-------------------------------|
A|-------------------------------|
E|-------------------------------|

e|--3--0--5--2--3--3--3--3-------|
B|---0--0--0--0--0--0--0--0------|
G|----0--0--0--0--0--0--0--0-----|
D|-------------------------------|
A|-------------------------------|
E|-------------------------------|

e|--3--0--5--2--3/7--7--7--7-----|
B|---0--0--0--0---0---0--0--0----|
G|----0--0--0--0---0---0--0--0---|
D|-------------------------------|
A|-------------------------------|
E|-------------------------------|

Repeat the previous one more time ...

e|--6--5--3----------------------|
B|---0--0--0---5--3/5--5--5--5---|
G|----0--0--0---0---0---0--0--0--|
D|---------------0---0---0--0--0-|
A|-------------------------------|
E|-------------------------------|

This is my first post .. Hope you like it 


************************************

| /   slide up
| \   slide down
| h   hammer-on
| p   pull-off
| ~   vibrato
| +   harmonic
| x   Mute note
| b   Bend
| pb  Pre-bend
| br  Bend release
| pbr Pre-bend release
| brb Bend release bend

************************************
Добавлено: 23.09.2015
Другие материалы по этой песне:
  • Аккорды и текст

Страница создана 23.09.2015
http://primanota.ru/misc-soundtrack/last-of-us-main-theme-2-chords.htm
Привет, Гость.
Предлагаем пройти революционный курс по гитаре.
Подарок от PrimaNota.Ru, забирай!