PrimaNota.ru - самый крупный в мире бесплатный архив песенных текстов, аккордов, табулатур и нот


Misc Soundtrack - Chevaliers De Sangreal - бас-таба, видео

Регистрация Запомнить меня
Войти через:  Facebook Google Twitter Vk Yandex Mail.ru

Misc Soundtrack - Chevaliers De Sangreal - бас-таба, видео

Печатать
Просмотров: 156
Уроки эстрадного вокала в Санкт-Петербурге
---------------------------------------------------------------------
             Chevaliers de Sangreal - Da Vinci Code Theme Song
---------------------------------------------------------------------
Tabbed by: RagnaarMN
E-mail: 

Tuning: Standard
Keys of D and G Minor

1-4
G|----------------|----------------|----------------|----------------|
D|0---------------|----------------|----------------|----------------|
A|----------------|----------------|----------------|----------------|
E|----------------|----------------|1---------------|----------------|

5-8
G|----------------|----------------|----------------|----------------|
D|----------------|----------------|----------------|----------------|
A|3---------------|----------------|0---------------|----------------|
E|----------------|----------------|----------------|------------0---|
                              

9-12
G|----------------|----------------|----------------|----------------|
D|----------------|0---------------|----------------|----------------|
A|----------------|----------------|------------0---|3---------------|
E|1-----------0---|------------0---|1---------------|------------1---|

12-16
G|----------------|----------------|----------------|----------------|
D|----------------|----------------|----------------|----------------|
A|------------3---|----------------|0-----------3---|------------0---|
E|3---------- ----|0-----------3---|----------------|0---------------|

17-20
G|----------------|----------------|------0-0-----0-|----------------|
D|----------0-0---|0---------------|----7-----------|----------------|
A|8---8-7-7-----0-|------------7---|8---------8-8---|------------8---|
E|----------------|----------------|----------------|8---------------|

21-24
G|0---0-----------|------------0---|----------------|----------------|
D|----------------|----------------|7---109-9-7-7---|------------7---|
A|------8-8-7-7---|7---------------|----------------|7---------------|
E|--------------8-|----------------|--------------8-|----------------|

25-28
G|----------------|----------------|----------------|----------------|
D|0---------------|----------------|----------------|----------------|
A|----------------|----------------|----------------|----------------|
E|----------------|----------------|1---------------|----------------|

29-32
G|----------------|----------------|----------------|----------------|
D|----------------|----------------|----------------|----------------|
A|----------------|3---------------|0---------------|----------------|
E|1---------------|----------------|----------------|----------------|

33-36
G|----------------|----------------|----------------|----------------|
D|------------0---|----------------|------------0---|----------------|
A|1---------------|------------0---|1---------------|------------1---|
E|----------------|3---------------|----------------|1---------------|

37-40
G|----------------|----------------|----------------|----------------|
D|----------------|----------------|----------------|------------0---|
A|3---------------|0-----------3---|1---------------|0---------------|
E|------------1---|----------------|------------1---|----------------|

41-44
G|----------------|----------------|----------------|----------------|
D|------------0---|----------------|------------0---|----------------|
A|1---------------|3-----------0---|1---------------|------------1---|
E|----------------|----------------|----------------|1---------------|

45-48
G|----------------|----------------|----------------|----------------|
D|----------------|----------------|0-----------0---|------------0---|
A|3---------------|0-----------3---|--------------0-|1---------------|
E|------------1---|----------------|----------------|----------------|

49-52
G|----------------|----------------|----------------|----------------|
D|------------0---|------------0---|----------------|----------------|
A|3-------------0-|1---------------|--------------1-|3-------------0-|
E|----------------|----------------|1-----------1---|------------1---|

53-54
G|----------------|----------------|
D|----------------|----------------|
A|----------------|----------------|
E|3---------------|----------------|

As you play, listen for the Cello. Mostly a strong 4 - 1 beat. 
Measures 17-24 can be simplified by playing only the first and last 
2 notes during the 4 challenging measures. Measure 23 contains a 
10th fret note. 

======================================================================
Добавлено: 03.05.2016
Другие материалы по этой песне:
  • Аккорды и текст

Страница создана 03.05.2016
http://primanota.ru/misc-soundtrack/chevaliers-de-sangreal-chords.htm
Привет, Гость.
Предлагаем пройти революционный курс по гитаре.
Подарок от PrimaNota.Ru, забирай!