PrimaNota.ru - самый крупный в мире бесплатный архив песенных текстов, аккордов, табулатур и нот


Misc Soundtrack - Outer Senshi Theme - таба, видео

Регистрация Запомнить меня
Войти через:  Facebook Google Twitter Vk Yandex Mail.ru

Misc Soundtrack - Outer Senshi Theme - таба, видео

Печатать
Просмотров: 112
This is my first ever tab so don't be a Sailor Uranus about it. Anyways, I'm pretty
sure the guitar tab to this song doesn't exist anywhere else yet as of 1/6/2016.
So you have no choice but to give this 5 stars by default AHAHAHAHAHA!!!!
-------------------------------------------------------------------------------------------------------------
                             Outer Senshi Theme - Sailor Moon - Takanori Arisawa (R.I.P.)
-------------------------------------------------------------------------------------------------------------

Tabbed by: Ludnorc


Tuning:E Standard

Violin part transposed to guitar
E|-------------------------------------|---------------------------------------------|
B|--------------10---------------------|-----------------10--------------------10----|
G|-9---9--11-12----12-11-9-------------|---9---9--11--12----12--11--9-11-12----------|
D|---9----------------------12-10---12-|-----9---------------------------------------|
A|-------------------------------------|---------------------------------------------|
E|-------------------------------------|---------------------------------------------|
                                                                                           - - - - - - - [[[}
|-------------8-----------------10-8--|------------8---11-8-------------------8--10--|
|12-9-10-12----10-------------------12|-10------10---12-----10--------10--12---------|
|------------------9-12-11--11--------|----11-12---------------11-12-----------------|
|-------------------------------------|----------------------------------------------|
|-------------------------------------|----------------------------------------------|
|-------------------------------------|----------------------------------------------|

the above repeats then the song ends with;

|-12-------|
|----------|
|----9-----|
|----------|
|----------|
|----------|



Huh this guitar tab kinda looks like a pistol..weird...
Добавлено: 14.05.2016
Другие материалы по этой песне:
  • Аккорды и текст

Страница создана 14.05.2016
http://primanota.ru/misc-soundtrack/outer-senshi-theme-chords.htm
Привет, Гость.
Предлагаем пройти революционный курс по гитаре.
Подарок от PrimaNota.Ru, забирай!