PrimaNota.ru - самый крупный в мире бесплатный архив песенных текстов, аккордов, табулатур и нот


Misc Soundtrack - Vampirella - Bleed For Me - таба

Регистрация Запомнить меня
Войти через:  Facebook Google Twitter Vk Yandex Mail.ru

Misc Soundtrack - Vampirella - Bleed For Me - таба

Печатать
Просмотров: 43
   
         Vampirella
      - Bleed For Me - 
   

  tabbed by PelzR (08-25-2015)


Tuning: Standard E (E A D G B e)
BPM: 117


Did you ever watched the movie "Vampirella" and wanted to play the song Roger Daltrey performed during
the bar scene called "Bleed For Me"? Well, here is the tab. Altough not detailed. There are only
3 riffs, it's not hard to learn.


Riff 1 (Main Riff)

   Q  Q  Q  H
e|------------||
B|------------||
G|----------R-||
D|------------||
A|-4--7--4----||
E|-2--5--2----||
   |- 3 -|


Riff 2 (Chorus Riff)

   E  S E  S E. E  S E E
e|-----------------------|
B|-----------------------|
G|-----------------------|
D|-----------------------|
A|------3--3-0--6--6-5---|
E|-2--2----------------3-|
   

Riff 3 (Bridge)
  
   E E E E E E E E   E E E E E E E E   E E E E E E E E   E E E E E E E E   E E E E E E E E
e|-----------------|-----------------|-----------------|-----------------|-----------------|
B|-----------------|-----------------|-----------------|-----------------|-----------------|
G|-----------------|-----------------|-----------------|-----------------|-----------------|
D|-4-4-4-4-4-4-4-4-|-5-5-5-5-5-5-5-5-|-6-6-6-6-6-6-6-6-|-7-7-7-7-7-7-7-7-|-7-7-7-7-7-7-7-7-|
A|-2-2-2-2-2-2-2-2-|-3-3-3-3-3-3-3-3-|-4-4-4-4-4-4-4-4-|-5-5-5-5-5-5-5-5-|-5-5-5-5-5-5-5-5-|
E|-----------------|-----------------|-----------------|-----------------|-----------------|
   . . . . . . . .   . . . . . . . .   . . . . . . . .   . . . . . . . .   . . . . . . . .
   


Description:
------------
H     -> half notes
Q     -> quarter notes
E     -> 8th notes (a point behind the note - like "E." - is a dotted note)
S     -> 16th notes
R     -> pause
.     -> palm mute
|-3-| -> 3-tuplet
Добавлено: 27.05.2016
Другие материалы по этой песне:
  • Аккорды и текст

Страница создана 27.05.2016
http://primanota.ru/misc-soundtrack/vampirella-bleed-for-me-chords.htm
Привет, Гость.
Предлагаем пройти революционный курс по гитаре.
Подарок от PrimaNota.Ru, забирай!