PrimaNota.ru - самый крупный в мире бесплатный архив песенных текстов, аккордов, табулатур и нот


Misc Soundtrack - Ravenous - End Titles - таба, видео

Регистрация Запомнить меня
Войти через:  Facebook Google Twitter Vk Yandex Mail.ru

Misc Soundtrack - Ravenous - End Titles - таба, видео

Печатать
Просмотров: 73
'End titles' by Damon Albarn and Michael Nyman, from the Original Motion Picture 
Soundtrack of the 1999
  movie 'Ravenous' by Antonia Bird.
Enjoy!!!

intro riff:

E|--10--10--10--10--10--10-----------------------10--10--10--10--10--10-----------------------|
B|--------------------------4--4--4--4--4--4--4--------------------------4--4--4--4--4--4--4--|
G|--------------------------------------------------------------------------------------------|
D|--------------------------------------------------------------------------------------------|
A|--------------------------------------------------------------------------------------------|
E|--------------------------------------------------------------------------------------------|

the main guitar part around 0:40 :

E|--6--8--10--11--8--6--3--6--6--6--3--1-----3--6--8--10--11-----11-----11--|
B|----------------------------------------4---------------------------------|
G|--------------------------------------------------------------------------|
D|--------------------------------------------------------------------------|
A|--------------------------------------------------------------------------|
E|--------------------------------------------------------------------------|


E|--8--6--3--6--6--6--3--1-----3--6--8--10--11--6--8--10--11--8--6--3--6--6--6--3--1-----3--6--8--10--11--|
B|--------------------------4---------------------------------------------------------4-------------------|
G|--------------------------------------------------------------------------------------------------------|
D|--------------------------------------------------------------------------------------------------------|
A|--------------------------------------------------------------------------------------------------------|
E|--------------------------------------------------------------------------------------------------------|

strings part around 1:12 :

E|--------------------------------------------------------------------------------------------|
B|----------------------------------3-----------------4--1-----1------------------------------|
G|---3----------------------------------5--5--3--5-----------------3-----3--0-----0-----------|
D|-----5------5--3-----3--1----------------------------------------------------------3--1--5--|
A|--------------------------3-----------------------------------------------------------------|
E|--------------------------------------------------------------------------------------------|
Around 3:16 :

E|-----------------------------------------------------8--|
B|--------------------------------------------8--1--5-----|
G|--8--5--1-----------8--5--1-----------8--5--------------|
D|--------------------------------------------------------|
A|-----------3--8--------------3--8--6--------------------|
E|--------------------------------------------------------|

E|-----------8--------------------8--9--9--6-----------------|
B|--------8-----9-----8--6--9--------------------8--6--9--9--|
G|--8--5-----------6--------------------------6--------------|
D|-----------------------------------------------------------|
A|-----------------------------------------------------------|
E|-----------------------------------------------------------|

Tabbed by maxox10
Добавлено: 14.05.2016
Другие материалы по этой песне:
  • Аккорды и текст

Страница создана 14.05.2016
http://primanota.ru/misc-soundtrack/ravenous-end-titles-chords.htm
Привет, Гость.
Предлагаем пройти революционный курс по гитаре.
Подарок от PrimaNota.Ru, забирай!