PrimaNota.ru - самый крупный в мире бесплатный архив песенных текстов, аккордов, табулатур и нот


Misc Soundtrack - The Da Vinci Code- Chevaliers De Sangreal - таба, видео

Регистрация Запомнить меня
Войти через:  Facebook Google Twitter Vk Yandex Mail.ru

Misc Soundtrack - The Da Vinci Code- Chevaliers De Sangreal - таба, видео

Печатать
Просмотров: 89
---------------------------------------------------------------------
            The Da Vinci Code - Chevaliers De Sangreal  
---------------------------------------------------------------------
Tabbed by: RagnaarMN

Tuning: Standard
Keys of D and G Minor

1-4
E|----------------|----------------|----------------|----------------|
B|----------------|----------------|----------------|----------------|
G|----------------|----------------|----------------|----------------|
D|0---------------|----------------|----------------|----------------|
A|----------------|----------------|0---------------|----------------|
E|----------------|----------------|----------------|----------------|

5-8
E|----------------|----------------|----------------|----------------|
B|----------------|----------------|----------------|----------------|
G|----------------|----------------|----------------|----------------|
D|----------------|----------------|----------------|----------------|
A|3---------------|----------------|----------------|----------------|
E|----------------|----------------|1---------------|----------------|

9-12
E|----------------|----------------|----------------|----------------|
B|----------------|----------------|----------------|----------------|
G|----------------|----------------|----------------|----------------|
D|----------------|----------------|----------------|----------------|
A|1---------------|----------------|3---------------|----------------|
E|----------------|----------------|----------------|----------------|

13-16
E|----------------|----------------|----------------|----------------|
B|----------------|----------------|----------------|----------------|
G|----------------|----------------|----------------|----------------|
D|----------------|----------------|----------------|----------------|
A|3---------------|----------------|----------------|------------0---|
E|----------------|----------------|1---------------|----------------|

17-20
E|----------------|----------------|----------------|----------------|
B|----------------|----------------|----------------|----------------|
G|----------------|----------------|----------------|----------------|
D|----------------|0---------------|----------------|----------------|
A|------------0---|----------------|------------0---|3---------------|
E|1---------------|------------0---|1---------------|------------1---|

21-24
E|----------------|----------------|----------------|----------------|
B|----------------|----------------|----------------|----------------|
G|----------------|----------------|----------------|----------------|
D|----------------|----------------|----------------|----------------|
A|------------3---|----------------|0-----------3---|------------0---|
E|3---------------|0-----------3---|----------------|0---------------|

25-28
E|----------------|----------------|----------------|----------------|
B|----------------|----------------|----------------|----------------|
G|----------------|----------------|------0-0-----0-|----------------|
D|----------0-0---|0---------------|----7-----------|----------------|
A|8---8-7-7-----0-|------------7---|8---------8-8---|------------8---|
E|----------------|----------------|----------------|8---------------|

29-30
E|----------------|----------------|
B|----------------|----------------|
G|0---0-----------|------------0---|
D|----------------|----------------|
A|------8-8-7-7---|7---------------|
E|--------------8-|----------------|

31-32
E|--------------------------------|--------------------------------|
B|--------------------------------|--------------------------------|
G|--------------------------------|--------------------------------|
D|7-------10--9---9---7---7-------|------------------------7-------|
A|--------------------------------|7-------------------------------|
E|----------------------------8---|--------------------------------|

33-34
E|--------------------------------|--------------------------------|
B|--------------------------------|--------------------------------|
G|--------7-----------------------|12------------------------------|
D|8-----------10--10--8---8-------|--------12----------------------|
A|----------------------------10--|----------------13------12------|
E|--------------------------------|--------------------------------|

35-36
E|--------------------------------|--------------------------------|
B|--------------------------------|--------------------------------|
G|--------------------------------|--------------------------------|
D|--------15--13--13--12--12------|----15--------------------------|
A|13--------------------------15--|15------13--------------15--13--|
E|--------------------------------|--------------------------------|

37-38
E|--------------------------------|--------------------------------|
B|--------------------------------|--------------------------------|
G|--------------------------------|--------------------------------|
D|--------------------------------|15------------------------------|
A|15------15--13--13--12--12------|--------15--------------15------|
E|----------------------------13--|----------------13--------------|

39-40
E|--------------------------------|--------------------------------|
B|--------------------------------|--------------------------------|
G|--------14--12--12--------------|--------14------12--------------|
D|12------------------15--15--14--|14--12------------------15--14--|
A|--------------------------------|--------------------------------|
E|--------------------------------|--------------------------------|

41-42
E|--------------------------------|--------------------------------|
B|--------------------------------|--------------------------------|
G|--------------------------------|12------------------------------|
D|0-------12----------------------|--------12----------------------|
A|------------15--15--13--13------|----------------13------12------|
E|----------------------------15--|--------------------------------|

43-44
E|--------------------------------|--------------------------------|
B|--------------------------------|--------------------------------|
G|--------------------------------|--------------------------------|
D|--------15--13--13--12--12------|----15--------------------------|
A|13--------------------------15--|15------13------------------13--|
E|--------------------------------|------------------------13------|

45-46
E|--------------------------------|--------------------------------|
B|--------------------------------|--------------------------------|
G|--------------------------------|--------------------------------|
D|--------------------------------|15------------------------------|
A|15------15--13--13--12--12------|--------15------12------15------|
E|----------------------------13--|--------------------------------|

47-48
E|--------------------------------|--------------------------------|
B|--------------------------------|--------------------------------|
G|--------14--12--12--------------|--------------------------------|
D|12------------------15--15--14--|12------12----------------------|
A|--------------------------------|------------15--15--13--13------|
E|--------------------------------|----------------------------15--|

49-50
E|--------------------------------|--------------------------------|
B|--------------------------------|--------------------------------|
G|12------------------------------|--------------------------------|
D|--------15------14------12------|0-------15--14--14--12--12------|
A|--------------------------------|----------------------------15--|
E|--------------------------------|--------------------------------|

51-52
E|--------------------------------|--------------------------------|
B|--------------------------------|--------------------------------|
G|--------------------------------|--------------------------------|
D|--------------------------------|--------10--8---8---7---7-------|
A|15--13--13----------------------|----------------------------8---|
E|------------13--13--------------|8-------------------------------|

53-54
E|----------------|----------------|
B|----------------|----------------|
G|0---------------|----------------|
D|----------------|----------------|
A|----------------|----------------|
E|----------------|----------------|

This is the violin sheet music. In the beginning the violin is silent until
measure 17. So in this version you play the left hand piano sheet music, 
then the cello part until the violins comes in. When you compare this 
tab to the bass (cello) tab of this song, you notice that the violin plays
the cello's music but lags it by 8 measures at first. As you play, listen for the 
Cellos. Mostly a strong 4 - 1 beat. The violins are playing lead starting
in measure 33. It is what 'Soars' in the song I think. Some B flats and
E flats are naturalized according to the sheet music. If you find a discordant
note, please leave a comment and I'll check it. Challenging runs can be
simplified by playing only the notes on beats 1, 2, 3 and 4. Ambitious tabbers
may want to move everything up an octave or re-position things along the neck.

======================================================================
Добавлено: 14.05.2016
Другие материалы по этой песне:
  • Аккорды и текст

Страница создана 14.05.2016
http://primanota.ru/misc-soundtrack/da-vinci-code-chevaliers-de-sangreal-chords.htm
Привет, Гость.
Предлагаем пройти революционный курс по гитаре.
Подарок от PrimaNota.Ru, забирай!