PrimaNota.ru - самый крупный в мире бесплатный архив песенных текстов, аккордов, табулатур и нот


Misc Soundtrack - The Man - Orange Marmalade - таба, видео

Регистрация Запомнить меня
Войти через:  Facebook Google Twitter Vk Yandex Mail.ru

Misc Soundtrack - The Man - Orange Marmalade - таба, видео

Печатать
Просмотров: 167
Уроки эстрадного вокала в Санкт-Петербурге
-------------------------------------------------------------------------------
                            The Man - Orange Marmalade OST
-------------------------------------------------------------------------------

Tabbed by: Kelby381
E-mail: Kelbyluk@hotmail.com

Tuning: Standard

Links;
Song: https://www.youtube.com/watch?v=7wtV-7L9bNc
Example Video: (Uploading)

Intro

e|----------------------------------0---3-------------------------------------|
B|----3-------3-------------------1---1---------------------------------------|
G|------2-------2---2-2p-0------0---------------------------------------------|
D|--0------3---------------3--------------------------------------------------|
A|----------------3-----------3-----------------------------------------------|
E|----------------------------------------------------------------------------|

Main 

e|--------1-1-3-1--0-0-0-------|--------1-1-5-3-1-3-|--3-3-5-1-0---0h1-1-0----|
B|--3-3-3----------------3-1-3-|--3-3-3-------------|------------3--------3-1-|
G|-----------------------------|--------------------|-------------------------|
D|-----------------------------|--------------------|-------------------------|
A|-----------------------------|--------------------|-------------------------|
E|-----------------------------|--------------------|-------------------------|

                   Ending 1 (Back to Main)    Ending 2
e|----5---0-0-0-|  |--1-3-1--|               |-----------5---0-0-0------------|
B|--3---3-------|  |---------|               |--3-1-3--3---3-------3-1-3------|
G|--------------|  |---------|               |--------------------------------|
D|--------------|  |---------|               |--------------------------------|
A|--------------|  |---------|               |--------------------------------|
E|--------------|  |---------|               |--------------------------------|



************************************

| /   slide up
| \   slide down
| h   hammer-on
| p   pull-off
| ~   vibrato
| +   harmonic
| x   Mute note
| b   Bend
| pb  Pre-bend
| br  Bend release
| pbr Pre-bend release
| brb Bend release bend

************************************
Добавлено: 27.05.2016
Другие материалы по этой песне:
  • Аккорды и текст

Страница создана 27.05.2016
http://primanota.ru/misc-soundtrack/man-orange-marmalade-chords.htm
Привет, Гость.
Предлагаем пройти революционный курс по гитаре.
Подарок от PrimaNota.Ru, забирай!