PrimaNota.ru - самый крупный в мире бесплатный архив песенных текстов, аккордов, табулатур и нот


Misc Computer Games - Virtua Tennis - The Power - таба, видео

Регистрация Запомнить меня
Войти через:  Facebook Google Twitter Vk Yandex Mail.ru

Misc Computer Games - Virtua Tennis - The Power - таба, видео

Печатать
Просмотров: 83
Virtua Tennis - The Power (Dreamcast)
Tabbed by LTRobson 16/06/07

Standard tuning
Underscores are palm mutes

|--------------------------------------------------------------------|
|--------------------------------------------------------------------|
|--------------------------------------------------------------------|
|-7-----7-----7---6-----6-----6---5-----5-----5---5p0--2p0--3p0--4p0-|
|-5-5-5-5-5-5-5-5-5-5-5-5-5-5-5-5-5-5-5-5-5-5-5-5--------------------|
|--------------------------------------------------------------------|
    - -   - -   -   - -   - -   -   - -   - -   -

|-----------------------------------------------------------------|
|-------------------------------------------------3-------5/6-6/8-|
|---------------------------------------------------3---3---------|
|-7-----7-----7---6-----6-----6---5-----5-----5-------3-----------|
|-5-5-5-5-5-5-5-5-5-5-5-5-5-5-5-5-5-5-5-5-5-5-5-5-----------------|
|-----------------------------------------------------------------|
    - -   - -   -   - -   - -   -   - -   - -   - - - - -

|-----------------------------------------------------------------|
|-------------------------------------------------3-------5/6-6/8-|
|---------------------------------------------------3---3---------|
|-7-----7-----7---6-----6-----6---5-----5-----5-------3-----------|
|-5-5-5-5-5-5-5-5-5-5-5-5-5-5-5-5-5-5-5-5-5-5-5-5-----------------|
|-----------------------------------------------------------------|
    - -   - -   -   - -   - -   -   - -   - -   - - - - -

|-------------------------------------|
|-------------------------------------|
|-7------5-------------5--7-(9)-(7)-5-|
|----5-7----5-7-3--5-7----------------|
|-------------------------------------|
|-------------------------------------|

|------------------------------|
|------------------------------|
|-7------5---------------5/7\5-|
|----5-7----5-7-3--5-7-5-5/7\5-|
|------------------------------|
|------------------------------|

|-------------------------------------|
|-------------------------------------|
|-7------5-------------5--7-(9)-(7)-5-|
|----5-7----5-7-3--5-7----------------|
|-------------------------------------|
|-------------------------------------|

|--------------------------------|
|---------------6----------6/8\6-|
|-7------5---------7p5-----5/7\5-|
|----5-7----5-7--------7-5-------|
|--------------------------------|
|--------------------------------|

0:44
|----------------------------------|
|----------------------------------|
|----------------------------------|
|-8--------5----7----8----------10-|
|-8--------5----7----8----------10-|
|-6--------3----5----6----------8--|

|----------------------|
|----------------------|
|--------------------8-|
|-8--------5----3----8-|
|-8--------5----3----6-|
|-6--------3----1------|

|----------------------------------------|
|----------6-----------------------6/8\6-|
|-7----5-7-5---4--5--6--7--5-7p5---5/7\5-|
|-7----5-7-----4--5--6--7--5-7p5-7-------|
|----------------------------------------|
|----------------------------------------|

|---------------------------------------------------------|
|----------6-------------------------8-(10)-8p5-----6/8\6-|
|-7----5-7-5---4--5--6--7--5-7p5---5------------7-5-5/7\5-|
|-7----5-7-----4--5--6--7--5-7p5-7-5----------------------|
|---------------------------------------------------------|
|---------------------------------------------------------|

|-----------------------------------------|
|----------8-----------------------9/11\9-|
|-9----7-9-7---6--7--8--9--7-9p7---8/10\8-|
|-9----7-9-----6--7--8--9--7-9p7-9--------|
|-----------------------------------------|
|-----------------------------------------|

|------------------------------------------------------------|
|----------8-----------------------8-10-(12)-10p7-----9/11\9-|
|-9----7-9-7---6--7--8--9--7-9p7---7--------------9-7-8/10\8-|
|-9----7-9-----6--7--8--9--7-9p7-9---------------------------|
|------------------------------------------------------------|
|------------------------------------------------------------|
Добавлено: 10.08.2013
Другие материалы по этой песне:
  • Аккорды и текст

Страница создана 10.08.2013
http://primanota.ru/misc-computer-games/virtua-tennis-the-power-chords.htm
Привет, Гость.
Предлагаем пройти революционный курс по гитаре.
Подарок от PrimaNota.Ru, забирай!