PrimaNota.ru - самый крупный в мире бесплатный архив песенных текстов, аккордов, табулатур и нот


Misc Computer Games - World Of Warcraft - Invincible - Arthas My Son - таба, видео

Регистрация Запомнить меня
Войти через:  Facebook Google Twitter Vk Yandex Mail.ru

Misc Computer Games - World Of Warcraft - Invincible - Arthas My Son - таба, видео

Печатать
Просмотров: 332
Уроки эстрадного вокала в Санкт-Петербурге
Invincible - Arthas, my son

Tabbed by: Tritoch21

Standard tuning

Let Ring


e|---0----0----0-------------------------------------------------------------|
B|---1--------------3----1----3----1-------0-----------------------3---------|
G|---2--------------0----2-----------------0-----------------------4---------|
D|-----------------------2-----------------------------------------5---------|
A|---0----2--------------0-------------2--------7h8----------------5---------|
E|-------------3--------------0----3------------------8----7~~~----3---------|



e|------------------------<12>-----------------------------------------------|
B|---0----------------------------<12>---------------------------------------|
G|---0---------------0-------------------------------------------------------|
D|---2----------2------------------------------------------------------------|
A|---------2-----------------------------<7>---------------------------------|
E|---0------------------------------------------<7>--------------------------|



e|---------------------------------------------------------------------------|
B|---1---------------0----1---------0---------3--------------0---------------|
G|-------------2---------------------------------------------------2-------2-|
D|--------2----------2--------------0-------------------0---------------2----|
A|---0-------------------------2---------2---------2---------2-----0---------|
E|------------------------3-------------------3------------------------------|




e|---------------------------------------------------------------------------|
B|---1---------------1----0---------0----------3--------------0--------------|
G|--------------2-------------------------------------------------2--------2-|
D|--------2----------2--------------0-------------------0--------------2-----|
A|---0-------------------------2--------2----------2----------2---0----------|
E|------------------------3--------------------3-----------------------------|

                                                        


e|---0------------0--------------0----------1-------1------------------------|
B|---1-----------------3--------------------1-----------1-----0--------------|
G|---2--------2--------0--------------------2-----------------1------------1-|
D|--------2-------2--------------0------------------3---------2--------2-----|
A|---0----------------------2---------2---------3-------3----------2---------|
E|---------------------3--------------------1-----------------0--------------|



e|---0----0------------2-----2----0-----2----0----2----3----7-----5----------|
B|---1----------3------3----------1-----3-------------------7-----7----------|
G|---2----------2------2----------2-----2-------------------8-----7----------|
D|--------------0------0----------------0------------------------------------|
A|---0----------------------------0-------------------------------5----------|
E|----------------------------------------------------------7----------------|




e|----9----------------------------------------------------------------------|
B|----9----------------------------------------------------------------------|
G|----10---------------------------------------------------------------------|
D|----11------------------9--------------------------------------------------|
A|----11-----9h11----12-------11----9-----11---------3--------2--------------|
E|----9----------------------------------------------------------------------|



e|---------------------------------------------------------------------------|
B|---1----------1----3-------1-------0---------------------------------------|
G|----------2----------------2------------2----0-----------------------------|
D|-------2------2--------2-------2-------------0---------------0-------------|
A|---0---------------0--------------------2--------2-------2-------2---------|
E|-----------------------------------3-----------------3---------------------|



e|---------------------------------------------------------------------------|
B|---1----------1---3------1-------0-----------------------------------------|
G|----------2--------------2--------------------------------0----------------|
D|-------2------2-------2------2----------2-------------2--------------------|
A|---0--------------0------------------2-----2-------2-----------------------|
E|---------------------------------0--------------0--------------------------|



e|---1--------------1-----3--------1------------0----------------------------|
B|----------------------------------------------1-------3-----1--------------|
G|---------------------------------2------------0----------------------------|
D|------------3--------------------------3------2----------------------------|
A|--------3---------3----------3----------------3----------------------------|
E|---1--------------------1--------------------------------------------------|



e|-------------------------0--------5--------------------3-------------------|
B|---------------------------------------------------------------------------|
G|---------------------------------------------------------------------------|
D|--------------------0-----------------------3----------------------5-------|
A|----3-----2----3---------2--------------3--------3-------------5------5----|
E|----------------------------------1--------------------3-------------------|


e|-----5---------------------------------------------------------------------|
B|---------------------------------------------------------------------------|
G|--------------------------5------------------------------------------------|
D|---------------7----------7------------------------------------------------|
A|------------7-----7-------7------------------------------------------------|
E|-----5--------------------5------------------------------------------------|

Добавлено: 14.06.2013
Другие материалы по этой песне:
  • Аккорды и текст

Страница создана 14.06.2013
http://primanota.ru/misc-computer-games/world-of-warcraft-invincible-arthas-my-son-chords.htm
Привет, Гость.
Предлагаем пройти революционный курс по гитаре.
Подарок от PrimaNota.Ru, забирай!