PrimaNota.ru - самый крупный в мире бесплатный архив песенных текстов, аккордов, табулатур и нот


Misc Computer Games - Virtua Tennis - Tought Emergy - таба, видео

Регистрация Запомнить меня
Войти через:  Facebook Google Twitter Vk Yandex Mail.ru

Misc Computer Games - Virtua Tennis - Tought Emergy - таба, видео

Печатать
Просмотров: 80
Virtua Tennis - Tought Emergy (Dreamcast)
Tabbed by LTRobson 16/06/07

Standard tuning

|---------------------------------------------------------------------|
|---------------------------------------------------------------------|
|---------------------------------------------------------------------|
|---------------------------------------------------------------------|
|-10-9-8---------------------6-8-8-6-8\------------------8--9-8-6-8-6-|
|--------11-8--6-8-8-6-8\------------------6-8-8-6-8\-----------------|

|------------------------------------------------------------|
|------------------------------------------------------------|
|------------------------------------------------------------|
|---------------------------------------------------8--------|
|---------------6-8-8-6-8\------------------8--9-10---10-9-8-|
|-6-8-8-6-8\------------------6-8-8-6-8\---------------------|

|---------------------------------------------------------|
|---------------------------------------------------------|
|---------------------------------------------------------|
|---------------------------------------------------------|
|---------------6-8-8-6-8\-------------------9--9-8-6-8-6-|
|-6-8-8-6-8\------------------6-8-8-6-8\------------------|

|-----------------------------------------------------------------|
|-----------------------------------------------------------------|
|-----------------------------------------------------------------|
|---------------------------------------------------8-------------|
|---------------6-8-8-6-8\------------------8--9-10---10-9-8--10\-|
|-6-8-8-6-8\------------------6-8-8-6-8\--------------------------|

Fret the bass note with your thumb

  G                          Bb/G
|-----------------------------------------------------------|
|-----------------------------------------------------------|
|----------------------------3--3-----3-------3-3-3-3-------|
|-5-5--5-------5-5-5-5-------3--3-----3-------3-3-3-3-------|
|-5-5--5-------5-5-5-5--------------------------------------|
|-3-3--3-3-3-3-3-3-3-3-3-3-3-3--3-3-3-3-3-3-3-3-3-3-3-3-3-3-|
         - - -         - - -      - -   - - -         - - -

  C/G                        G
|------------------------------------------------------------|
|------------------------------------------------------------|
|-5-5--5-------5-5-5-5------------------------------------7\-|
|-5-5--5-------5-5-5-5-------5--5-----5-----------------5----|
|----------------------------5--5-----5-----------5-6-7------|
|-3-3--3-3-3-3-3-3-3-3---3-3-3--3-3-3-3-3----3-3-------------|
         - - -           - -      - -   -    - -
Добавлено: 11.11.2013
Другие материалы по этой песне:
  • Аккорды и текст

Страница создана 11.11.2013
http://primanota.ru/misc-computer-games/virtua-tennis-tought-emergy-chords.htm
Привет, Гость.
Предлагаем пройти революционный курс по гитаре.
Подарок от PrimaNota.Ru, забирай!