PrimaNota.ru - самый крупный в мире бесплатный архив песенных текстов, аккордов, табулатур и нот


Misc Computer Games - Unreal - Shared Dig - таба, видео

Регистрация Запомнить меня
Войти через:  Facebook Google Twitter Vk Yandex Mail.ru

Misc Computer Games - Unreal - Shared Dig - таба, видео

Печатать
Просмотров: 113
                                 Shared Dig                                    


                                                             Michiel van den Bos
guitar



     W                 W                 
E||-------------------------------------|
B||-------------------------------------|
G||--7b----------------4----------------|
D||-------------------------------------|
A||-------------------------------------|
E||-------------------------------------|


  Q    W                 H        Q     
---------------------------------------|
---------------------------------------|
-------4b------------------------------|
--5------------------------------------|
-------------------------7--------L----|
---------------------------------------|


  Q    E   W                 H        E   
-----------------------------------------|
-----------------------------------------|
-----------------------------4--------L--|
-------5h--7~----------------------------|
--5--------------------------------------|
-----------------------------------------|


  Q    E   W                 H        E           
-----------------------------------------|-------|
-----------------------------------------|-------|
--5--------------------------------------|-------|
-----------------------------------------|-------|
-------5s--7~----------------------------|-------|
-----------------------------------------|-------|


  W                 W                   Q    W                 H        Q     
-------------------------------------|---------------------------------------|
-------------------------------------|---------------------------------------|
--7b----------------4----------------|-------4b------------------------------|
-------------------------------------|--5------------------------------------|
-------------------------------------|-------------------------7--------L----|
-------------------------------------|---------------------------------------|


  Q    E   W                 H        E   
-----------------------------------------|
-----------------------------------------|
-----------------------------4--------L--|
-------5h--7~----------------------------|
--5--------------------------------------|
-----------------------------------------|


  Q    E   W                Q    Q    E   
-----------------------------------------|
--8----6s--8----------------L------------|
-----------------------------------------|
-----------------------------------------|
-----------------------------------------|
-----------------------------------------|


    E    W                 H         E   Q     
|---------------------------------------------|
|---8s--10----------------13---------L--12----|
|*--------------------------------------------|
|*--------------------------------------------|
|---------------------------------------------|
|---------------------------------------------|


  E   W                 H        Q    E   
-----------------------------------------|
--6s--8----------------\3--------L-------|
-----------------------------------------|
-----------------------------------------|
-----------------------------------------|
-----------------------------------------|


  Q    E   W                 H        E     
------------------------------------------||
--8----3s--5~-----------------------------||
-----------------------------------------*||
-----------------------------------------*||
------------------------------------------||
------------------------------------------||


  W                 W                 
-------------------------------------|
--8b----------------L----------------|
-------------------------------------|
-------------------------------------|
-------------------------------------|
-------------------------------------|


  E   E   Q    Q    W                 Q     
---------------3---------------------------|
--5s--3s--5---------3~---------------------|
-------------------------------------------|
-------------------------------------------|
-------------------------------------------|
-------------------------------------------|


  E   H        H        E  E  E   H         
-------------------------------------------|
--6s--8------------------------------------|
---------------5--------L--4---------------|
------------------------------5s--7--------|
-------------------------------------------|
-------------------------------------------|


  E   E    E  E    E   E  E   H         H         E   
-----------------------------------------------------|
-----------------------------------------------------|
--------------9h--10p--9--5s--7--------14~-----------|
--7h--9h--10-----------------------------------------|
-----------------------------------------------------|
-----------------------------------------------------|


   E   E   S   H         E   W                S  
------------------------------------------------|
--12--13--12s-13---------L--15------------------|
------------------------------------------------|
------------------------------------------------|
------------------------------------------------|
------------------------------------------------|


  Q    E   E   E    W                 Q    E    
----------10--10s--12~------------------------||
-------8--------------------------------------||
--9-------------------------------------------||
----------------------------------------------||
----------------------------------------------||
----------------------------------------------||




Duration Legend
---------------
W - whole
H - half
Q - quarter
E - 8th
S - 16th
T - 32nd
X - 64th
. - note dotted
|-n-|  - n-tuplets


Tablature Legend
----------------
L - tied note
x - dead note
g - grace note
(n) - ghost note
> - accentuded note
NH - natural harmonic
AH - artificial harmonic
TH - tapped harmonic
SH - semi harmonic
PH - pitch harmonic
h - hammer on
p - pull off
b - bend
br - bendRelease
pb - preBend
pbr - preBendRelease
brb - bendReleaseBend
\n/ - tremolo bar dip
\n - tremolo bar dive
-/n - tremolo bar Release up
/n\ - tremolo bar inverted dip
/n - tremolo bar return
-\n - tremolo bar Release down
S - shift slide
s - legato slide
/ -  slide into from below or out of upwards
\ -  slide into from above or out of downwards
~ - vibrato
W - wide vibrato
tr - trill
TP - tremolo picking
T - tapping
S - slap
P - pop
< - fade in
^ - brush up
v - brush down
Добавлено: 02.06.2013
Другие материалы по этой песне:
  • Аккорды и текст

Страница создана 02.06.2013
http://primanota.ru/misc-computer-games/unreal-shared-dig-chords.htm
Привет, Гость.
Предлагаем пройти революционный курс по гитаре.
Подарок от PrimaNota.Ru, забирай!