PrimaNota.ru - самый крупный в мире бесплатный архив песенных текстов, аккордов, табулатур и нот


Misc Computer Games - Virtua Tennis - Player Select - таба, видео

Регистрация Запомнить меня
Войти через:  Facebook Google Twitter Vk Yandex Mail.ru

Misc Computer Games - Virtua Tennis - Player Select - таба, видео

Печатать
Просмотров: 79
Virtua Tennis - Player Select (Dreamcast)
Tabbed by LTRobson 16/06/07

Standard tuning
Underscores are palm mutes

|----------|
|----------|
|----------|
|----------|
|-2-/-12-\-|
|-2-/-12-\-|

  E                C#      D
|----------------------------------------|
|----------------------------------------|
|------------------9-------11--(12)-(11)-|
|-2-----2-------/9-----12----------------|
|-2---2-2-2-2-2--------------------------|
|-0---0-0-0-0-0--------------------------|
      -   - - -  continue powerchords

      C          D            E
|----------0-------------------------|
|-------------3--2---------------3/5-|
|-----0--2----------2-2h4p2p0-1------|
|-2-4--------------------------------|
|------------------------------------|
|------------------------------------|

  E                C#       D
|-----------------------------------------|
|-----------------------------------------|
|------------------9--------11--(12)-(11)-|
|-2-----2-------/9------12----------------|
|-2---2-2-2-2-2---------------------------|
|-0---0-0-0-0-0---------------------------|
      -   - - -

     C               D               E
|------------------------------------|
|------------------------------------|
|----12-14-14/16-14----12h14p12/11-9-|
|-12---------------------------------|
|------------------------------------|
|------------------------------------|
 

  A    
|-----------------------------------------------------------------|
|----------------------x-5-5-5-5------------------------x-5-5-5-5-|
|----------------------x-6-6-6-6------------------------x-6-6-6-6-|
|----------------------x-7-7-7-7------------------------x-7-7-7-7-|
|-----------------------------------------------------------------|
|-3h5-5-5-5-3-3-5--5-5------------3h5-5-5-5-3-3-5---5-5-----------|
      - - - - -                       - - - - -  
  B            
|--------------------------------------------------------------|
|----------------------x-7-7-7-7-------------------------------|
|----------------------x-8-8-8-8-------------------------------|
|----------------------x-9-9-9-9------------------------x------|                    
|-------------------------------------------------------x------|
|-5h7-7-7-7-5-5-7--7-7------------5h7-7-7-7-5-5-7---7-7---7--6-|
      - - - - -                       - - - - -        
  A
|-----------------------------------------------------------------|
|----------------------x-5-5-5-5------------------------x-5-5-5-5-|
|----------------------x-6-6-6-6------------------------x-6-6-6-6-|
|----------------------x-7-7-7-7------------------------x-7-7-7-7-|
|-----------------------------------------------------------------|
|-3h5-5-5-5-3-3-5--5-5------------3h5-5-5-5-3-3-5---5-5-----------|       
      - - - - -                       - - - - -  
  G                                F#                                    
|------------------------------------------------|
|----------------------x-3-3-3-3-x---------------|
|----------------------x-4-4-4-4-x---------------|
|----------------------x-5-5-5-5-x---------------|
|----------------------------------4-4-4-4-4-4-4-|
|-2h3-3-3-3-2-2-3--3-3-------------2-2-2-2-2-2-2-|
      - - - - -                    - - - - - - -
Добавлено: 27.09.2013
Другие материалы по этой песне:
  • Аккорды и текст

Страница создана 27.09.2013
http://primanota.ru/misc-computer-games/virtua-tennis-player-select-chords.htm
Привет, Гость.
Предлагаем пройти революционный курс по гитаре.
Подарок от PrimaNota.Ru, забирай!