PrimaNota.ru - самый крупный в мире бесплатный архив песенных текстов, аккордов, табулатур и нот


Misc Computer Games - Super Mario World 2 Yoshis Island - Big Boss - бас-таба, видео

Регистрация Запомнить меня
Войти через:  Facebook Google Twitter Vk Yandex Mail.ru

Misc Computer Games - Super Mario World 2 Yoshis Island - Big Boss - бас-таба, видео

Печатать
Просмотров: 72
Yoshis Island - big boss

Tabbed by: Ashy (xxThreeCheersxx)
E-mail: burdickash@gmail.com

Tuning: Drop D

Come in at 0:09)
G|-----------------------------------------------------------------|
D|--------------------------0~--------1~---------------------------|
A|-------------1~--------0------------------1~--------0~-----------|
D|-5~--------3-------------(0)~------(1)~-----------------------6--|

(played very fast)
G|---------------------------------|
D|---------------------------------|
A|---------------------------------| x 6
D|-5-5-6-5-5-6-5-5-6-5-5-6-5-6-5-8-|

G|---------------------------------|
D|---------------------------------|
A|-3-3-4-3-3-4-3-3-4-3-3-4-3-4-3-6-| x 4
D|---------------------------------|

Happy playing!

| /  slide up
| \  slide down
| h  hammer-on
| p  pull-off
| ~  vibrato
| +  harmonic
| x  Mute note
===============================================================================
Добавлено: 21.08.2015
Другие материалы по этой песне:
  • Аккорды и текст

Страница создана 21.08.2015
http://primanota.ru/misc-computer-games/super-mario-world-2-yoshis-island-big-boss-chords.htm
Привет, Гость.
Предлагаем пройти революционный курс по гитаре.
Подарок от PrimaNota.Ru, забирай!