PrimaNota.ru - самый крупный в мире бесплатный архив песенных текстов, аккордов, табулатур и нот


Misc Computer Games - Super Mario World - Status Screen - бас-таба, видео

Регистрация Запомнить меня
Войти через:  Facebook Google Twitter Vk Yandex Mail.ru

Misc Computer Games - Super Mario World - Status Screen - бас-таба, видео

Печатать
Просмотров: 105
Status Screen - Bass Tab

Tuning: Standard

Note: This is from the Game Boy Advance game, "Super Mario 
World: Super Mario Advance 2."  This is the theme that plays 
when you are viewing the status screen.

G|------------------------------------------------------------|
D|--------2---------------------------------------------------|
A|-3--3------5--------2--2---5--3-----------------------------|
E|---------------5------------------3-------------------------|

G|------------------------------------------------------------|
D|--------2---------------------------------------------------|
A|-3--3------5---------2-3---------------------2-2-2-2--------|
E|---------------5---5-----3---3-3---3-3-3-5-5----------------|

If there's any confusion, questions, or advice on how to 
improve it, please post a comment. Have fun playing, and 
please rate! -Rarrlow
Добавлено: 21.08.2015
Другие материалы по этой песне:
  • Аккорды и текст

Страница создана 21.08.2015
http://primanota.ru/misc-computer-games/super-mario-world-status-screen-chords.htm
Привет, Гость.
Предлагаем пройти революционный курс по гитаре.
Подарок от PrimaNota.Ru, забирай!