PrimaNota.ru - самый крупный в мире бесплатный архив песенных текстов, аккордов, табулатур и нот


Misc Computer Games - Mega Man 2 Dr Wilys Castle Map - таба, видео

Регистрация Запомнить меня
Войти через:  Facebook Google Twitter Vk Yandex Mail.ru

Misc Computer Games - Mega Man 2 Dr Wilys Castle Map - таба, видео

Печатать
Просмотров: 49
Новый альбом группы 'Черный Кузнец' по культовому сериалу 'Сверхъестественное'!
e|------------------------------------------------------|
B|------------------------------------------------------|
G|---------7--6--4-------4------------------------------|
D|---6-----------------6-------4--5--6--9-8-7-----------|
A|------------------------------------------------------|
E|------------------------------------------------------|


e|--------------------------------- 9----11-------------|
B|---------------------------------------9--------------|
G|--------7--6--4-------4h7/10~-------------------------|
D|-- 6---------------6----------------------------------|
A|------------------------------------------------------|
E|------------------------------------------------------|


| /   slide up
| ~   vibrato
| h   hammer-on

https://www.youtube.com/watch?v=3Ier8KzpeUM
Добавлено: 14.06.2018
Другие материалы по этой песне:
  • Аккорды и текст

Страница создана 14.06.2018
http://primanota.ru/misc-computer-games/mega-man-2-dr-wilys-castle-map-chords.htm
Привет, Гость.
Предлагаем пройти революционный курс по гитаре.
Подарок от PrimaNota.Ru, забирай!