PrimaNota.ru - самый крупный в мире бесплатный архив песенных текстов, аккордов, табулатур и нот


Misc Computer Games - Megadimension Neptunia Vii - Voltage - таба, видео

Регистрация Запомнить меня
Войти через:  Facebook Google Twitter Vk Yandex Mail.ru

Misc Computer Games - Megadimension Neptunia Vii - Voltage - таба, видео

Печатать
Просмотров: 96
Новый альбом группы 'Черный Кузнец' по культовому сериалу 'Сверхъестественное'!
e||----------------|-------------|---------------|-------------|
B||o---------------|-------------|---------------|-------------|
G||----------------|-------------|---------------|-------------|
D||----------------|-------------|---------------|-------------|
A||o-8-8-8-8-6-8-9-|-8-----6-----|-8-8-8-8-6-8-9-|-8-----6-----|
E||----------------|----9-----8--|---------------|----9-----8--|


e|---------------|-------------|---------------|----------------||
B|---------------|-------------|---------------|---------------o||
G|---------------|-------------|---------------|----------------||
D|---------------|-------------|---------------|-------6--------||
A|-8-8-8-8-6-8-9-|-8-----6-----|-8-8-8-8-6-8-9-|-8-------9-8-9-o||
E|---------------|----9-----8--|---------------|----9-----------||


e||--------------|-------------|-------------|-------------|
B||o-------------|-------------|-------------|-------------|
G||--------------|-------------|-------------|-------------|
D||--------------|-------------|-------------|-------------|
A||o-6-8-4-6-3-4-|-6-8-4-6-3-4-|-6-8-4-6-3-4-|-6-8-4-6-3-4-|
E||--------------|-------------|-------------|-------------|


e|-------------|-------------|-------------|----------------||
B|-------------|-------------|-------------|---------------o||
G|-------------|-------------|-------------|----------------||
D|-6-8-4-6-3-4-|-6-8-4-6-3-4-|-6-8-4-6-3-4-|-6-8-4-3-8-11---||
A|-------------|-------------|-------------|---------------o||
E|-------------|-------------|-------------|----------------||


e|-----------|------------|-----------|------------|
B|-----------|------------|-----------|------------|
G|-----------|------------|-----------|------------|
D|-----------|------------|-----------|------------|
A|------8----|------------|------8----|------------|
E|-9---------|-11----8----|-9---------|-11----8----|


e|-----------|------------|-----------|------------|
B|-----------|------------|-----------|------------|
G|-----------|------------|-----------|------------|
D|-----------|------------|-----------|------------|
A|------8----|------------|------8----|------------|
E|-9---------|-11----8----|-9---------|-11----8----|


e|-----------|--------------|-----------|----------------|
B|-----------|--------------|-----------|----------------|
G|-----------|--------------|-----------|----------------|
D|-----------|--------------|-----------|-----------6----|
A|-8---------|-(8)----6--9--|-8---------|-(8)----6-------|
E|-----------|--------------|-----------|----------------|


e|-----------|-------------|-----------|-------------|
B|-----------|-------------|-----------|-------------|
G|-----------|-------------|-----------|-------------|
D|-----------|-------------|-----------|-------------|
A|-----------|-------------|-----------|--------6----|
E|-9---------|-(9)----8----|-9---------|-(9)---------|



                            ~~                                    ~~
e|-----------------------|-------------|-----------------------|-------------|
B|-----------------------|-------------|-----------------------|-------------|
G|--------------------11-|-------------|-11---13-15------------|-------------|
D|-11---13-15-13---15----|-15------11--|------------15---13-11-|-13----------|
A|-----------------------|-------------|-----------------------|---------11--|
E|-----------------------|-------------|-----------------------|-------------|


                            ~~                                    ~~
e|-----------------------|-------------|-----------------------|-------------|
B|-----------------------|-------------|-----------------------|-------------|
G|--------------------11-|-------------|-15---17-18-17---15-13-|-15------15--|
D|-11---13-15-13---15----|-15------15--|-----------------------|-------------|
A|-----------------------|-------------|-----------------------|-------------|
E|-----------------------|-------------|-----------------------|-------------|


                       ~~                               ~~
e|-14----14b16---14-|-13----------|-11----11b13---11-|-------------|
B|------------------|---------11--|------------------|-14------13--|
G|------------------|-------------|------------------|-------------|
D|------------------|-------------|------------------|-------------|
A|------------------|-------------|------------------|-------------|
E|------------------|-------------|------------------|-------------|


e|----------16-|-16b18----16-13-|
B|-11----14----|----------------|
G|-------------|----------------|
D|-------------|----------------|
A|-------------|----------------|
E|-------------|----------------|


    T                 T                 T                 T                   ~~
e|-18-16p13p11h13h16-18-16p13p11h13h16-18-16p13p11h13h16-18-16p13p11h13h16-|-18--|
B|-------------------------------------------------------------------------|-----|
G|-------------------------------------------------------------------------|-----|
D|-------------------------------------------------------------------------|-----|
A|-------------------------------------------------------------------------|-----|
E|-------------------------------------------------------------------------|-----|


e||--------------------------------|
B||o-------------------------------|
G||--------------------------------|
D||--11-11-11-11-11-13-13-13-13-13-|
A||o-------------------------------|
E||--------------------------------|


e|-------------------------------|-------------------------------|
B|-------------------------------|-------------------------------|
G|----------------11-11-11-11-11-|-13-13-13-13-13-15-15-15-15-15-|
D|-15-15-15-15-15----------------|-------------------------------|
A|-------------------------------|-------------------------------|
E|-------------------------------|-------------------------------|


e|-------------------------------|-------------------------------|
B|-13-13-13-13-13-14-14-14-14-14-|-16-16-16-16-16-13-13-13-13-13-|
G|-------------------------------|-------------------------------|
D|-------------------------------|-------------------------------|
A|-------------------------------|-------------------------------|
E|-------------------------------|-------------------------------|


e|----------------------------------|
B|-14-14-14-14-14-16-16-16-16-16----|
G|----------------------------------|
D|----------------------------------|
A|----------------------------------|
E|----------------------------------|


e|-13-13-13-13-13----------------|----------------13-13-13-14-14--||
B|----------------14-14-14-14-14-|-16-16-16-16-16----------------o||
G|-------------------------------|--------------------------------||
D|-------------------------------|--------------------------------||
A|-------------------------------|-------------------------------o||
E|-------------------------------|--------------------------------||


e|-----------|------------|-----------|------------|
B|-----------|------------|-----------|------------|
G|-----------|------------|-----------|------------|
D|-----------|------------|-----------|------------|
A|------8----|------------|------8----|------------|
E|-9---------|-11----8----|-9---------|-11----8----|


e|-----------|------------|-----------|------------|
B|-----------|------------|-----------|------------|
G|-----------|------------|-----------|------------|
D|-----------|------------|-----------|------------|
A|------8----|------------|------8----|------------|
E|-9---------|-11----8----|-9---------|-11----8----|


e|-----------|--------------|-----------|--------------|
B|-----------|--------------|-----------|--------------|
G|-----------|--------------|-----------|--------------|
D|-----------|--------------|-----------|-----------6--|
A|-8---------|-(8)----6--9--|-8---------|-(8)----6-----|
E|-----------|--------------|-----------|--------------|



e|-----------|-------------|-----------|-------------|
B|-----------|-------------|-----------|-------------|
G|-----------|-------------|-----------|-------------|
D|-----------|-------------|-----------|-------------|
A|-----------|-------------|-----------|--------6----|
E|-9---------|-(9)----8----|-9---------|-(9)---------|




                            ~~                                    ~~
e|-----------------------|-------------|-----------------------|-------------|
B|-----------------------|-------------|-----------------------|-------------|
G|--------------------11-|-------------|-11---13-15------------|-------------|
D|-11---13-15-13---15----|-15------11--|------------15---13-11-|-13----------|
A|-----------------------|-------------|-----------------------|---------11--|
E|-----------------------|-------------|-----------------------|-------------|


                            ~~                                    ~~
e|-----------------------|-------------|-----------------------|-------------|
B|-----------------------|-------------|-----------------------|-------------|
G|--------------------11-|-------------|-15---17-18-17---15-13-|-15------15--|
D|-11---13-15-13---15----|-15------15--|-----------------------|-------------|
A|-----------------------|-------------|-----------------------|-------------|
E|-----------------------|-------------|-----------------------|-------------|


                       ~~                               ~~
e|-14----14b16---14-|-13----------|-11----11b13---11-|-------------|
B|------------------|---------11--|------------------|-14------13--|
G|------------------|-------------|------------------|-------------|
D|------------------|-------------|------------------|-------------|
A|------------------|-------------|------------------|-------------|
E|------------------|-------------|------------------|-------------|


e|-----------16--|-16b18----16--13--|
B|-11----14------|------------------|
G|---------------|------------------|
D|---------------|------------------|
A|---------------|------------------|
E|---------------|------------------|


    T                 T                 T                 T                   ~~
e|-18-16p13p11h13h16-18-16p13p11h13h16-18-16p13p11h13h16-18-16p13p11h13h16-|-18----|
B|-------------------------------------------------------------------------|-------|
G|-------------------------------------------------------------------------|-------|
D|-------------------------------------------------------------------------|-------|
A|-------------------------------------------------------------------------|-------|
E|-------------------------------------------------------------------------|-------|



e||--------------|-------------|-------------|-------------|
B||o-------------|-------------|-------------|-------------|
G||--------------|-------------|-------------|-------------|
D||--------------|-------------|-------------|-------------|
A||o-6-8-4-6-3-4-|-6-8-4-6-3-4-|-6-8-4-6-3-4-|-6-8-4-6-3-4-|
E||--------------|-------------|-------------|-------------|


e|-------------|-------------|-------------|----------------||
B|-------------|-------------|-------------|---------------o||
G|-------------|-------------|-------------|----------------||
D|-6-8-4-6-3-4-|-6-8-4-6-3-4-|-6-8-4-6-3-4-|-6-8-4-3-8-11---||
A|-------------|-------------|-------------|---------------o||
E|-------------|-------------|-------------|----------------||



************************************

| (n)  Ghost note
| h    Hammer-on
| p    Pull-off
| b    Bend
| o    reprise

************************************
Добавлено: 14.06.2018
Другие материалы по этой песне:
  • Аккорды и текст

Страница создана 14.06.2018
http://primanota.ru/misc-computer-games/megadimension-neptunia-vii-voltage-chords.htm
Привет, Гость.
Предлагаем пройти революционный курс по гитаре.
Подарок от PrimaNota.Ru, забирай!