PrimaNota.ru - самый крупный в мире бесплатный архив песенных текстов, аккордов, табулатур и нот


Misc Computer Games - Megaman Zero 2 - Departure - таба, видео

Регистрация Запомнить меня
Войти через:  Facebook Google Twitter Vk Yandex Mail.ru

Misc Computer Games - Megaman Zero 2 - Departure - таба, видео

Печатать
Просмотров: 111
Новый альбом группы 'Черный Кузнец' по культовому сериалу 'Сверхъестественное'!
e|------------------|
B|-\15--16--\18-----|
G|---------------15-|
D|------------------|
A|------------------|
E|------------------|

e|------------------------------------|
B|------------------------------------|
G|------------------------------------|
D|-8--10-7--12--10--------------------|
A|-6--8--5--10--8---------------------|
E|-6--8--5--10--8-----------| repeat--| 4x

e|-----------------------------------------------------------------|
B|-----------------------------------------------------------------|
G|-----------------------------------------------------------------|
D|-5--4-----3--2-----5(In this fret follow the rhythm of the song)-|
A|-------5--------3------------------------------------------------|
E|-----------------------------------------------------------------|

e|------------------------------------------------|
B|------------------------------------------------|
G|------------------------------------------------|
D|-5--4-----3--2----------------------------------|
A|-------5--------3---8(Same, Follow the rhythm)--|
E|------------------------------------------------|

e|---------------------|
B|---------------------|
G|---------------------|
D|-5--4-----3--2-----5-|
A|-------5--------3----|
E|---------------------|

e|------------------|
B|------------------|
G|------------------|
D|-5--4-----3--2----|
A|-------5--------3-|
E|------------------|

e|-------------------|---------------------------|
B|-------------------|---------------------------|
G|-12-14-15-12-15-14-|--15-15-17-19-15-19-17-----|
D|-------------------|-----------------------17--|
A|-------------------|---------------------------|
E|-------------------|---------------------------|

e|-------------------------------|-------------------------------------------------|
B|----13-------------------------|-------------------------13-15-16-15-13----------|
G|-15----15-14-12-10-10/14-14\10-|-12-14-15-12-15-14-15-------------------15-17-12~|
D|-------------------------------|-------------------------------------------------|
A|-------------------------------|-------------------------------------------------|
E|-------------------------------|-------------------------------------------------|

e|--------------------------|-------------13\10-|-----------------------------------------------|
B|-11-13-11-----------------|-------------------|-----------------------------------------------|
G|----------14-12-10-10/12~-|-12--14--15--------|-18b½-18b½-17-18b½-18b½-17-19-19/20-20\19------|
D|--------------------------|-------------------|-----------------------------------------------|
A|--------------------------|-------------------|-----------------------------------------------|
E|--------------------------|-------------------|-----------------------------------------------|

e|---------------------------------|---------------------|
B|-15-16-16/18------------15-16-15-|-15-13-11-7-7/10-----|
G|--------------15~-15-17----------|------------------12-|
D|---------------------------------|---------------------|
A|---------------------------------|---------------------|
E|---------------------------------|---------------------|

e|-------------------|
B|-------------------|
G|-------------------|
D|-------------------|
A|-5---7---5---10--8-|
E|-3---5---3---8---6-|

e|---------------------|---------------------|---------------------|------------------|
B|---------------------|---------------------|---------------------|------------------|
G|---------------------|---------------------|---------------------|------------------|
D|-5--4-----3--2-----5-|-5--4-----3--2-------|-5--4-----3--2-----5-|-5--4-----3--2----|
A|-------5--------3----|-------5--------3--8-|-------5--------3----|-------5--------3-|
E|---------------------|---------------------|---------------------|------------------|

e|-------------------------|--------------------------|------------------------------|
B|-------------------------|--------------------------|----13------------------------|
G|-12-14-15-12-/15-/15--14-|-/15-15-17-19-15-19-17----|-15----15-14-12-10-10/14-14\10|
D|-------------------------|-----------------------17-|------------------------------|
A|-------------------------|--------------------------|------------------------------|
E|-------------------------|--------------------------|------------------------------|

e|-----------------------------------------------|
B|-----------------------13-15-16-15-13----------|
G|-12-14-15-12-15-14-15-----------------15-17-12~|
D|-----------------------------------------------|
A|-----------------------------------------------|
E|-----------------------------------------------|

e|--------------------------|-------------13\10-|------------------------------------------------|
B|-11-13-11-----------------|-------------------|-14b½-14b½-13-14b½-14b½-13--15-15/16-16\15------|
G|----------14-12-10-10/12~-|-12--14--15--------|------------------------------------------------|
D|--------------------------|-------------------|------------------------------------------------|
A|--------------------------|-------------------|------------------------------------------------|
E|--------------------------|-------------------|------------------------------------------------|

e|-----------------------------------------------------------|
B|-\15-16-16/18-------------15-16-15-15-13-11-7-7/10---------|
G|--------------15~--\15-17---------------------------12~----|
D|-----------------------------------------------------------|
A|-----------------------------------------------------------|
E|-----------------------------------------------------------|

e|-----------------------------------------------------------|
B|-----------------------------------------------------------|
G|-/7-/10-/14-14~-14-15-14--14\10~-7-7/12--------------------|
D|-----------------------------------------------------------|
A|-----------------------------------------------------------|
E|-----------------------------------------------------------|

e|-----------------------------------------------------------|
B|----------------/10-11-13-13/18-18-18\15-------------------|
G|-/7-/10-/14-14~--------------------------------------------|
D|-----------------------------------------------------------|
A|-----------------------------------------------------------|
E|-----------------------------------------------------------|

e|--------------------------------------------------------------|
B|-/15-16-16/18-18~-/15-16-16/18-18~-18br½--18-18\15------------|
G|--------------------------------------------------------------|
D|--------------------------------------------------------------|
A|--------------------------------------------------------------|
E|--------------------------------------------------------------|

e|----------------------------------|------------------------|
B|----------------------------------|------------------------|
G|-14h-15p-14-15-14-----------------|------------------------|
D|------------------12/15~-15-15\12-|------------------------|
A|----------------------------------|------------------------|
E|----------------------------------|------------------------|

e|-------------------19b-19b-1919-17~-|----------------------|
B|----18----18/20-18------------------|----------------------|
G|-17----17---------------------------|----------------------|
D|------------------------------------|----------------------|
A|------------------------------------|----------------------|
E|------------------------------------|----------------------|

e|--------------------------------------------------------------|
B|-15~-15h-16p-15-16-17-17/18-18br½~----------------------------|
G|--------------------------------------------------------------|
D|--------------------------------------------------------------|
A|--------------------------------------------------------------|
E|--------------------------------------------------------------|


************************************

/= Slide Down
\= Slide Up
~= vibrato
b= Bending
b½ = bending in ½
br½= bending release in ½
h= Hammer on
p= Pull off

************************************
Добавлено: 14.08.2017
Другие материалы по этой песне:
  • Аккорды и текст

Страница создана 14.08.2017
http://primanota.ru/misc-computer-games/megaman-zero-2-departure-chords.htm
Привет, Гость.
Предлагаем пройти революционный курс по гитаре.
Подарок от PrimaNota.Ru, забирай!