PrimaNota.ru - самый крупный в мире бесплатный архив песенных текстов, аккордов, табулатур и нот


Misc Computer Games - Mass Effect 3 - Liaras Theme Aka Vigil - Citadel Dlc - таба

Регистрация Запомнить меня
Войти через:  Facebook Google Twitter Vk Yandex Mail.ru

Misc Computer Games - Mass Effect 3 - Liaras Theme Aka Vigil - Citadel Dlc - таба

Печатать
Просмотров: 323
                   Liara's Theme (AKA Vigil) - Sam Hulick

Tabbed by SaintZ42

This is my first tab so excuse the slight choppiness. This is my rendition of
 the fantastic piano piece written by Mass Effect composer Sam Hulick. It is
 the song played by Liara in the Mass Effect 3 Citadel DLC. Interestingly and
 awesomely it is also the Vigil theme from the original Mass Effect. Its best
 played finger style and I'm pretty sure it's at least 95% accurate. 


For accurate timings listen here: http://www.youtube.com/watch?v=PinXwIZaQHc 

Legend                          Chords 
| p   pull-off     |            | C  |x32010|
| h   hammer-on    |            | Gm |355333|                     
| r   let ring     |            | C? |x33335|(Dunno what it is but it works)                      
| ()  optional note|            | F  |133210|(Use thumb for F note) 
                                | F? |x32001|(Don't know the name)

   C                       Gm                 C        C?    F?

E||-0r----1-3r----1p0------------------------0-0r----1-3r----5-6--1r--------|
B||-1r------1r-------3-1-3---------3-----------1r------1r----3-3--0r--------|
G||-0r------0r----------(3)-3r----(3)-3r-------0r------0r----3-3--0r--Long--|
D||-------------------------5r--------5r-------2r------2r-------------Pause-|
A||-3r------3r--------------5r--------5r-------3r----- 3r----3-3--3r--------|
E||-------------------------3r--------3r------------------------------------|

   C         Gm                                C
E|-0r-----1p0------------------------------------------------------|
B|-0h1r------3-----3-----------3------------1r--------1--------1---|
G|-0r-------(3)-3-(3)-3-------(3)-3r----------------0--------0-----|
D|--------------5-----5-----------5r--------------2--------2-------|
A|-3r-----------5-----5-----------5r------------3--------3---------|
E|--------------3-----3-----------3r-------------------------------|

   C            Gm      C
E|-0r------------1r---3r----------1p0------------------------0-0r-----------|
B|-1r-----1------0r---1r------1------3-1------(3)-------(3)----1r-----1-----|
G|-0r---0-----0--0r---0r----0------------------3---------3-----0r---0-----0-|
D|----2-----2-------2-----2------------------5---------5----------2-----2---|
A|-3r------------3r---3r-------------------5---------5---------3r-----------|
E|---------------------------------------3---------3------------------------|

   C                C?           F               C              Gm              
E|-1r---3r----------5-6------------------1h3p1p0----------------------------|
B|-0r---1r-----1----3-3-----3-------------------3-------1-3p1--3-------3----|
G|-0r---0r---0------3-3---3------------2--------------0--------3-3----(3)-3-|
D|----2----2------------3------------3--------------2------------5--------5-|
A|-3r---3r----------3-3------------3--------------3--------------5--------5-|
E|-------------------------------1-------------------------------3--------3-|

        C
E|--------------0r------||
B|-1r---------1r--------||
G|----------r0----------||
D|--------2r------------||
A|------3r--------------||
E|----------------------||
Добавлено: 12.09.2013
Другие материалы по этой песне:
  • Аккорды и текст

Страница создана 12.09.2013
http://primanota.ru/misc-computer-games/mass-effect-3-liaras-theme-aka-vigil-citadel-dlc-chords.htm
Привет, Гость.
Предлагаем пройти революционный курс по гитаре.
Подарок от PrimaNota.Ru, забирай!