PrimaNota.ru - самый крупный в мире бесплатный архив песенных текстов, аккордов, табулатур и нот


Misc Computer Games - Metro 2033 - Last Night Theme - таба, видео

Регистрация Запомнить меня
Войти через:  Facebook Google Twitter Vk Yandex Mail.ru

Misc Computer Games - Metro 2033 - Last Night Theme - таба, видео

Печатать
Просмотров: 501
Clean
Intro
E-----------------------------|
B-----------------------------|
G-----------------------------|
D--2--/5-------4-----2-----1--|
A------------3-----2-----2----|
E-0--------5-----3-----2------|

E----------------------------------|
B--5---8---10-8-7---8-7-5---7---4--|
G----------------------------------|
D----------------------------------|
A----------------------------------|
E-0--------------------------------|

Rhythm
E----------------------|
B-5-5-/8-8-------------|
G----------5-5-\4-4----|
D----------------------|
A----------------------|
E----------------------|

E---------------------0------------------------------|
B-5-5-/8-8--------------8-8-10-10-7-7-8-8-5-5-7-7----|
G----------5-5-\4------------------------------------|
D-----------------5-2-----------------------------8-8|
A----------------------------------------------------|
E----------------------------------------------------|

Heavy distortion
Solo
E-12---15---11----------------------|
B----------------13---12------------|
G--------------------------14---12--|
D-----------------------------------|
A-----------------------------------|
E-----------------------------------|

E-12---15---17---14---15---12---14---11---12~~~~~~|
B-------------------------------------------------|
G-------------------------------------------------|
D-------------------------------------------------|
A-------------------------------------------------|
E-------------------------------------------------|

Clean
Outro
E-----------------------------|
B-----------------------------|
G-----------------------------|
D--2--/5-------4-----2-----1--|
A------------3-----2-----2----|
E-0--------5-----3-----2------|

E-------------------------------------------|
B-------------------------------------------|
G--4---5h4p5--------------------------------|
D--------------4---4-/7---5---4---5---4p5/2-|
A-------------------------------------------|
E-0-----------------------------------------|

/ = slide up
\ = slide down
h = hammer on
p = pull off
~ = vibrato
Добавлено: 03.06.2013
Другие материалы по этой песне:
  • Аккорды и текст

Страница создана 03.06.2013
http://primanota.ru/misc-computer-games/metro-2033-last-night-theme-chords.htm
Привет, Гость.
Предлагаем пройти революционный курс по гитаре.
Подарок от PrimaNota.Ru, забирай!