PrimaNota.ru - самый крупный в мире бесплатный архив песенных текстов, аккордов, табулатур и нот


Misc Computer Games - Uncharted Theme - таба, видео

Регистрация Запомнить меня
Войти через:  Facebook Google Twitter Vk Yandex Mail.ru

Misc Computer Games - Uncharted Theme - таба, видео

Печатать
Просмотров: 367
Уроки эстрадного вокала в Санкт-Петербурге
Uncharted Theme - PS3
I did this totally by ear. Maybe wrong but it sounds good to me.
It's only the beginning part of the song.

Tuning - standard (EADGBe)

~ - Hold Note
S - Slide
h - Hammer-on

e|----------------------------------------|
B|----------------------------------------|
G|-------9-7~-7-5-9~~-9-10~-10-9-7-5-9-7~-|
D|7h9-10----------------------------------|
A|----------------------------------------|
E|----------------------------------------|

e|---------------------------------|
B|---------------------------------|
G|7h9-10~-10-9-7-5-9-7-------------|
D|--------------------5-7~~s10s7~~-|
A|---------------------------------|
E|---------------------------------|

Thats the only part I could tab. It's the best part of the theme in my opinion. 
leave a comment and enjoy playing \,,/

Добавлено: 02.05.2012
Другие материалы по этой песне:
  • Аккорды и текст

Страница создана 02.05.2012
http://primanota.ru/misc-computer-games/uncharted-theme-chords.htm
Привет, Гость.
Предлагаем пройти революционный курс по гитаре.
Подарок от PrimaNota.Ru, забирай!