PrimaNota.ru - самый крупный в мире бесплатный архив песенных текстов, аккордов, табулатур и нот


Misc Computer Games - League Of Legends Theme Interpretation - таба, видео

Регистрация Запомнить меня
Войти через:  Facebook Google Twitter Vk Yandex Mail.ru

Misc Computer Games - League Of Legends Theme Interpretation - таба, видео

Печатать
Просмотров: 81
e|--------------5--------------------------|
B|---------5-6-----6-5---------------------|
G|---5-7---------------5------3-2-3--------|
D|-7---------------------------------------|
A|-----------------------------------------|
E|-----------------------------------------|


e|--------5-6----6-8----8--10--------------|
B|---6-8--------------5--------------------|
G|-7----------7----------------------------|
D|-----------------------------------------|
A|-----------------------------------------|
E|-----------------------------------------|

Добавлено: 14.09.2015
Другие материалы по этой песне:
  • Аккорды и текст

Страница создана 14.09.2015
http://primanota.ru/misc-computer-games/league-of-legends-theme-interpretation-chords.htm
Привет, Гость.
Предлагаем пройти революционный курс по гитаре.
Подарок от PrimaNota.Ru, забирай!