PrimaNota.ru - самый крупный в мире бесплатный архив песенных текстов, аккордов, табулатур и нот


Misc Computer Games - Fire Emblem - Together We Ride - таба, бас-таба, видео

Регистрация Запомнить меня
Войти через:  Facebook Google Twitter Vk Yandex Mail.ru

Misc Computer Games - Fire Emblem - Together We Ride - таба, бас-таба, видео

Печатать
Просмотров: 122
Уроки эстрадного вокала в Санкт-Петербурге
Fire Emblem theme: Together We Ride
Tabbed by: Maximushyrule

this is an arranged version that was on Super Smash Bros Melee. since it was originally 
to be played by an orchestra i had to break it into to different guitars. guitar I plays 
melody and guitar II plays the fill


Guitar I&II :intro

|----------|----------|--------------|---------|--------------------------|
|----------|----------|--------------|---------|--------------------------|
|----------|----------|--------------|---------|--------------------------|
|-8---8-8-8|9---9-9-9-|11---11-11-11-|9---9-9-9|-8---8-8-8---8-8-8---8-8-8|
|-8---8-8-8|9---9-9-9-|11---11-11-11-|9---9-9-9|-8---8-8-8---8-8-8---8-8-8|
|-6---6-6-6|7---7-7-7-|9----9--9--9--|7---7-7-7|-6---6-6-6---6-6-6---6-6-6|


Guitar I


|---------------------------|
|---------------------------|
|---------------------------|
|-5-4-5-7~-5-4-5-7~-5-4-5-7~|
|---------------------------|
|---------------------------|

|----------------|
|----------------|
|----------------|
|-3-4-3-1-3-1-0-2|
|----------------|
|----------------|

|------------------------------|
|------------------------------|
|------------------------------|
|-7-6-7-10~-7-6-7-10~-7-6-7-10~|
|------------------------------|
|------------------------------|

|-----------------|
|-----------------|
|-----------------|
|-9-10-9-7-9-7-6-8|
|-----------------|
|-----------------|

|-------------------------------------|
|-------------------------------------|
|-------------------------------------|
|-------------------------------------|
|-6-5-3-2--6-5-3-2--6-5-3-2---6-5--9~7|
|-------------------------------------|

Guitar II        (this is played at the same time as the above parts)

|------------------------|-------------------|
|------------------------|-------------------|
|------------------------|-------------------|
|------------------------|-------------------|
|------------------------|-------------------|
|-0-5~-7--5-5-4--2--2----|-3~-5--3-3-2--0-0--|
  . .                      .

Guitar I: interlude

|--------------------------------|-------------------------------------|
|--------------------------------|-------------------------------------|
|-9-10---9-9-10---9-9-10---9-9-10|--13-14---13-13-14---13-13-14---13-13|
|--------------------------------|-------------------------------------|
|--------------------------------|-------------------------------------|
|--------------------------------|-------------------------------------|


|-16/20|
|------|    slowly slide up to 20
|------|
|------|
|------|
|------|


Guitar II  (this is played during the interlude)

|----------|       |------------|     |----------|    |-------------|
|----------|       |------------|     |----------|    |-------------|
|----------|   X8  |------------| X8  |----------|X8  |-------------|  X8
|------9h12|       |-------11h14|     |------9h12|    |-------11h14-|
|---8------|       |---10-------|     |---8------|    |---10--------|
|-6--------|       |-8----------|     |-6--------|    |-8-----------|

Guitar I & II: Outro
                                play it slow first.
|-------------------------------------------------------------------|
|-------------------------------------------------------------------|
|-------------------------------------------------------------------|
|-0~--5~--9-9-22---4--5--7--5~-4~---0~--5~--9--12~-9--5--2---4-5-77-|
|-------------------------------------------------------------------|
|-------------------------------------------------------------------|

thats it.
Добавлено: 19.07.2012
Другие материалы по этой песне:

Страница создана 02.04.2012
http://primanota.ru/misc-computer-games/fire-emblem-together-we-ride-chords.htm
Привет, Гость.
Предлагаем пройти революционный курс по гитаре.
Подарок от PrimaNota.Ru, забирай!