PrimaNota.ru - самый крупный в мире бесплатный архив песенных текстов, аккордов, табулатур и нот


Misc Computer Games - Gauntlet - Song B - таба, бас-таба, видео

Регистрация Запомнить меня
Войти через:  Facebook Google Twitter Vk Yandex Mail.ru

Misc Computer Games - Gauntlet - Song B - таба, бас-таба, видео

Печатать
Просмотров: 59
Gtr I & 2 (E A D G B E) - Polysynth

    Q=140
    Gtr I
     Q  E  E  Q   Q     Q  E  E  Q   Q
||-----------14------|----------14------|
||o-15----12---------|-15----12---------|
||---------------11--|--------------11--|
||-------------------|------------------|
||o------------------|------------------|
||-------------------|------------------|
|
|   Gtr I
|    Q  E  E  Q   Q     Q  E  E  Q   Q
||-------------------|------------------|
||o------------------|------------------|
||-----------11------|----------11------|
||--12-----9---------|-12-----9---------|
||o---------------9--|------------------|
||-------------------|------------------|


  E  S  S  S  S  E  S  S  S  S  Q    E  S  S  S  S  E  S  S  S  S  Q
|----------------------------------|----------------------------------|
|---14-15-14-12----14-15-14-12-----|---14-15-14-12----14-15-14-12-----|
|---------------13-------------13--|---------------13-------------13--|
|----------------------------------|----------------------------------|
|----------------------------------|----------------------------------|
|----------------------------------|----------------------------------|
|
| E  S  S  S  S  E  S  S  S  S  Q    E  S  S  S  S  E  S  S  S  S  Q
|----------------------------------|----------------------------------|
|---14-15-14-12----14-15-14-12-----|---14-15-14-12----14-15-14-12-----|
|---------------13-------------13--|---------------13-------------13--|
|----------------------------------|----------------------------------|
|----------------------------------|----------------------------------|
|----------------------------------|----------------------------------|


   Q  E  E  Q   Q     Q  E  E  Q   Q    E  S  S  S  S  E  S  S  S  S  Q
|----------14------|----------14------|----------------------------------|
|-15----12-----12--|-15----12-----15--|---14-15-14-12----14-15-14-12-----|
|------------------|------------------|---------------13-------------13--|
|------------------|------------------|----------------------------------|
|------------------|------------------|----------------------------------|
|------------------|------------------|----------------------------------|
|
|  Q  E  E  Q   Q     Q  E  E  Q   Q    E  S  S  S  S  E  S  S  S  S  Q
|----------17------|-14-------17--14--|----------------------------------|
|--------------15--|-------15---------|---14-15-14-12----14-15-14-12-----|
|------------------|------------------|---------------13-------------13--|
|------------------|------------------|----------------------------------|
|-17----14---------|------------------|----------------------------------|
|------------------|------------------|----------------------------------|


  Q   S  S  S  S  S  S  S  S  S  S  S  S
|-------------------------------------16---|
|-------------16-------16-19----16-19------|
|-------16-18----16-18-------18------------|
|----18------------------------------------|
|------------------------------------------|
|------------------------------------------|
|
| W
|------------------------------------------|
|------------------------------------------|
|------------------------------------------|
|------------------------------------------|
|------------------------------------------|
|------------------------------------------|


   E  S  S  E  S  S  E  S  S  E E    E  E  Q     H
|-------------------------------9-|--------------------|
|-11-11-11-11-11-11-11-11-11-11---|-12-----------------|
|---------------------------------|----13--------------|
|---------------------------------|--------------------|
|---------------------------------|--------------------|
|---------------------------------|--------------------|
|
|  Q        E  E     Q        Q      Q     E  E  Q  Q
|-------------18------------------|----------14--------|
|----------17-------17------------|-------16----16-----|
|---------------------------------|--------------------|
|---------------------------------|--------------------|
|---------------------------------|--------------------|
|---------------------------------|--------------------|


   E  S  S  E  S  S  E   E     E     E    Q   Q   Q   Q
|--------------------9-----------------|----------9--11----|
|-11-11-11-11-11-11-----12----11-----9-|-----11------------|
|--------------------------------------|-12----------------|
|--------------------------------------|-------------------|
|--------------------------------------|-------------------|
|--------------------------------------|-------------------|
|
|  Q        E  E     E.     S  S  S  E    Q   Q   Q   Q
|-------------21-----------------------|-----14--16--19----|
|----------21-------21-----21----21-21-|-16----------------|
|--------------------------------------|-------------------|
|--------------------------------------|-------------------|
|--------------------------------------|-------------------|
|--------------------------------------|-------------------|


   Q        E     E  Q           Q          Q        E     E     Q        Q
|-------------------14-------------------|----------------------14----------------|
|----------------12----------------------|----------------12----------------------|
|-13-------------------------------------|-13-------------------------------------|
|-------------------------------13-------|-------------------------------13-------|
|----------------------------------------|----------------------------------------|
|----------------------------------------|----------------------------------------|
|
|  E  S  S  S  S  E  S  S  S  S  E  S  S    S  S  E  S  S  S  S  E  S  S  S  S  E
|----------------------------------------|----------------------------------------|
|----14-15-14-12----14-15-14-12----14-15-|-14-12----14-15-14-12----14-15-14-12----|
|----------------13-------------13-------|-------13-------------13-------------13-|
|----------------------------------------|----------------------------------------|
|----------------------------------------|----------------------------------------|
|----------------------------------------|----------------------------------------|


   E.  S  +S   S  E  S  S  S  S  S  S  S  S    E.  S S  S  E  E.  S  +S   S  E
|----------------------------16-------16-18-|------------------------------------|
|-16----------16-------17-19----17-19-------|----------------14-------------14---|
|-----18-(18)----16-18----------------------|-16-------13-16-------------15------|
|-------------------------------------------|-----14-------------17-(17)---------|
|-------------------------------------------|------------------------------------|
|-------------------------------------------|------------------------------------|
|
|  E.  S  +S   S  E  S  S  S  S  S  S  S  S    E.  S S  S  E  E.  S  +S   S  E
|----------------------------16-------16-18-|------------------------------------|
|-16----------16-------17-19----17-19-------|----------------14-------------14---|
|-----18-(18)----16-18----------------------|-16-------13-16-------------15------|
|-------------------------------------------|-----14-------------17-(17)---------|
|-------------------------------------------|------------------------------------|
|-------------------------------------------|------------------------------------|

*Begin absurd arpeggios


  S S S  S  S  S  S  S  S  S  S  S  S  S S  S   S S S S  S S  S  S  S  S  S S  S S S S
|----------------------10-12-15-10--8---------|----------------------------------------|
|----------------10-12----------------10-8----|----------------------------------------|
|-----------9-12---------------------------10-|-7-5------------------------------------|
|-----9-12------------------------------------|-----9-7--5---------------------2-------|
|---7-----------------------------------------|------------5--3-----------5-3----------|
|-7-------------------------------------------|------------------5--3--0---------2-3-5-|
|
| S S S  S  S  S  S  S  S  S  S  S  S  S S  S   S S S S  S S  S  S  S  S  S S  S S S S
|----------------------12---------------------|--------------------12------------------|
|----------------10-13----13-10---------------|--------------10-13----13-10------------|
|--------------9-----------------9------------|------------9----------------9----------|
|--------7-10----------------------10--7------|-------7-10--------------------10-7-----|
|-----7----------------------------------7----|-----7------------------------------7---|
|-5-8---------------------------------------8-|-5-8----------------------------------8-|


  S S S  S S  S S  S  S  S  S S S S S S   S S S S S S S  S  S  S S S S S S S
|---------------------8-10-13-8-6-------|---------------------------------------|
|---------------8-10--------------8-6---|---------------------------------------|
|----------7-10-----------------------8-|-5-3-----------------------------------|
|-----7-10------------------------------|-----7-5-3------------0-----0----------|
|---5-----------------------------------|-----------3-1----------3-1------------|
|-5-------------------------------------|----------------3--1----------0-1-3----|
|
| S S S  S S  S S  S  S  S  S S S S S S   S S S S S S S  S  S  S S S S S S S
|--------------------10-----------------|------------------10-------------------|
|---------------8-11----11--8-----------|-------------8-11----11-8--------------|
|-------------7---------------7---------|-----------7--------------7------------|
|--------5-8--------------------8-5-----|-------5-8------------------8-5--------|
|-----5-----------------------------5---|-----5--------------------------5------|
|-3-6---------------------------------6-|-3-6------------------------------6----|


  S S S  S  S  S  S  S  S  S  S  S  S  S S  S   S S S S  S S  S  S  S  S  S S  S S S S
|----------------------10-12-15-10--8---------|----------------------------------------|
|----------------10-12----------------10-8----|----------------------------------------|
|-----------9-12---------------------------10-|-7-5------------------------------------|
|-----9-12------------------------------------|-----9-7--5---------------------2-------|
|---7-----------------------------------------|------------5--3-----------5-3----------|
|-7-------------------------------------------|------------------5--3--0---------2-3-5-|
|
| S S S  S  S  S  S  S  S  S  S  S  S  S S  S   S S S S  S S  S  S  S  S  S S  S S S S
|----------------------12---------------------|--------------------12------------------|
|----------------10-13----13-10---------------|--------------10-13----13-10------------|
|--------------9-----------------9------------|------------9----------------9----------|
|--------7-10----------------------10--7------|-------7-10--------------------10-7-----|
|-----7----------------------------------7----|-----7------------------------------7---|
|-5-8---------------------------------------8-|-5-8----------------------------------8-|


  S S S  S S  S S  S  S  S  S S S S S S   E  E  E  E  Q  Q
|---------------------8-10-13-8-6-------|---17-17-17-17------||
|---------------8-10--------------8-6---|-------------------o||
|----------7-10-----------------------7-|--------------------||
|-----7-10------------------------------|--------------------||
|---5-----------------------------------|-------------------o||
|-5-------------------------------------|--------------------||
|
| S S S  S S  S S  S  S  S  S S S S S S   E  E  E  E  Q  Q
|--------------------10-----------------|--------------------||
|---------------8-11----11--8-----------|---11-11-11-11-----o||
|-------------7---------------7---------|--------------------||
|--------5-8--------------------8-5-----|--------------------||
|-----5-----------------------------5---|-------------------o||
|-3-6---------------------------------6-|--------------------||
Добавлено: 18.02.2016
Другие материалы по этой песне:

Страница создана 23.06.2012
http://primanota.ru/misc-computer-games/gauntlet-song-b-chords.htm
Привет, Гость.
Предлагаем пройти революционный курс по гитаре.
Подарок от PrimaNota.Ru, забирай!