PrimaNota.ru - самый крупный в мире бесплатный архив песенных текстов, аккордов, табулатур и нот


Misc Computer Games - Gauntlet - Song C - таба, бас-таба, видео

Регистрация Запомнить меня
Войти через:  Facebook Google Twitter Vk Yandex Mail.ru

Misc Computer Games - Gauntlet - Song C - таба, бас-таба, видео

Печатать
Просмотров: 50
Gtr I (E A D G B E) - 'Steel Guitar'
Gtr II (B E A D G B E) - 'Harpsichord'

    Q=160
    Gtr I
    W      Q   S  S  S  S    H       +Q   Q           W        Q    S  S  S  S
||-------|----14----------|-------|----------------|-------|-------14---------|
||o------|-------15-------|-16----|-(16)-----------|-------|----------15------|
||-------|----------14----|-------|----------------|-------|-------------14---|
||-------|-------------16-|-------|----------------|-------|----------------16|
||o------|----------------|-------|----------------|-------|------------------|
||-------|----------------|-------|----------------|-------|------------------|
|
|   Gtr II
|   W      W                 W        Q   S S S  S    H       +Q    S  S  S  S
||-------|----------------|-------|----------------|-------|------------------|
||-------|----------------|-------|----------------|-------|------------------|
||o------|----------------|-------|-------7--------|-------|--------7---------|
||-------|----------------|-------|---------7------|-10----|-(10)------7------|
||o------|----------------|-------|-----------9----|-------|--------------9---|
||-------|----------------|-------|-------------10-|-------|----------------10|
||-------|----------------|-------|----------------|-------|------------------|


   E E  E E    E E  E E    E  E  E  E    E  E  S  S  S  S    E  E  E  E
|-----------|-----------|-------------|-------------14-17-|-------------|
|-16--------|-13--------|-------------|----------15-------|-------------|
|------13---|------11---|-13-13-13-13-|-13-13-13----------|-13-13-13-13-|
|-----------|-----------|-------------|-------------------|-------------|
|-----------|-----------|-------------|-------------------|-------------|
|-----------|-----------|-------------|-------------------|-------------|
|
|  E E  E E    E E  E E    E  E  E  E    E  E  S  S  S  S    E  E  E  E
|-----------|-----------|-------------|-------------------|-------------|
|-----------|-----------|-------------|-------------------|-------------|
|----5------|----5------|--8-----8----|--8----11----------|--8-----8----|
|---------6-|---------6-|-----6-----6-|-----6----10-------|-----6-----6-|
|-----------|-----------|-------------|-------------10----|-------------|
|-----------|-----------|-------------|-----------------9-|-------------|
|-----------|-----------|-------------|-------------------|-------------|


   E  E  S  S  S  S    E  E  S  S  S  S    E  E  S  S  S  S
|-------------14-17-|-16----------14-17-|-16----------14-17-|
|----------15-------|----------15-------|----------15-------|
|-13-13-13----------|----13-13----------|----13-13----------|
|-------------------|-------------------|-------------------|
|-------------------|-------------------|-------------------|
|-------------------|-------------------|-------------------|
|
|  E  E  S  S  S  S    E  E  E     E       E  E  E     E
|-------------------|-------------------|-------------------|
|-------------------|-------------------|-------------------|
|--8----11----------|-----8-------------|-----8-------------|
|-----6----10-------|-------------------|-------------------|
|-------------10----|--------------9----|--------------9----|
|-----------------9-|-------------------|-------------------|
|-------------------|-------------------|-------------------|


   E  E  E  E    E  E  E  E    E.  S  E  E     E   E  Q
|-16----------|-16-------15-|-16--15-13----|---------------|
|-------15----|-------16----|-----------16-|--13-----------|
|----13-------|----13-------|--------------|------15-13----|
|----------12-|-------------|--------------|---------------|
|-------------|-------------|--------------|---------------|
|-------------|-------------|--------------|---------------|
|
|  E  E  E  E    E  E  E  E    E.  S  E  E    +Q      E  E
|-------------|-------------|--------------|---------------|
|-------------|-------------|--------------|---------------|
|--8----------|--8----------|-13--12-10----|---------------|
|-------10----|-------------|-----------13-|-(13)----13----|
|----11-----9-|----11-----9-|--------------|------------11-|
|-------------|-------11----|--------------|---------------|
|-------------|-------------|--------------|---------------|


   +Q     Q      W                 W         Q    Q
|--------------|-----------------|---------|-----------|
|--------------|-----------------|---------|-----------|
|-(13)---------|-----------------|---------|-----11----|
|--------------|-----------------|---------|-----------|
|--------------|-----------------|---------|-----------|
|--------------|-----------------|---------|-----------|
|
|   E   E E  E   E  E  S  S  S S   E E E E   E E  Q
|--------------|-----------------|---------|-----------|
|--------------|-----------------|---------|-----------|
|--------------|------11---------|-8---8---|-8---------|
|--------------|---------10------|---6---6-|---6--7----|
|------11---11-|---11-------10---|---------|-----------|
|--------------|---------------9-|---------|-----------|
|--------------|-----------------|---------|-----------|


   E  E  E  E    Q   E E   W      W
|-------------|----------|------|-------------|
|----------11-|----------|------|-------------|
|-10-13-12----|-13-------|------|-------------|
|-------------|----------|------|-------------|
|-------------|-----11---|------|-------------|
|-------------|----------|------|-------------|
|
|  E  E  E  E    Q   Q     W      Q  S S S  S
|-------------|----------|------|-------------|
|-------------|----------|------|-------------|
|-------------|----------|------|----7--------|
|-----------8-|----------|------|------7------|
|--8-11-10----|-11-------|------|--------9----|
|-------------|----------|------|----------10-|
|-------------|----------|------|-------------|


   W        W         E  E  E  E    E  E  E  E
|-------|----------|-------------|-------------|
|-------|----------|-------------|-------------|
|-------|----------|-------------|-------------|
|-------|----------|----11----10-|----12-13----|
|-------|----------|-10----11----|-11-------11-|
|-------|----------|-------------|-------------|
|
|  H       +Q   Q     E  E  E  E    E  E  E  E
|-------|----------|-------------|-------------|
|-------|----------|-------------|-------------|
|-------|----------|-------------|-------------|
|-10----|-(10)-----|-------------|-------------|
|-------|----------|-------------|-------------|
|-------|----------|-----4-----3-|-----5--6----|
|-------|----------|--3-----4----|--4--------4-|


   E.  S  E  E    Q   E.  S    H       +Q   E  S  S
|--------------|------------|-------|---------------|
|-11-----------|------------|-------|---------------|
|-----13-12-10-|------------|-13----|-(13)----------|
|--------------|-13--13--13-|-------|---------13-13-|
|--------------|------------|-------|---------------|
|--------------|------------|-------|---------------|
|
|  E.  S  E  E    Q   E.  S    H       +Q   E  S  S
|--------------|------------|-------|---------------|
|--------------|------------|-------|---------------|
|--------------|------------|-------|---------------|
|--8-----------|------------|-13----|-(13)----------|
|-----11-10--8-|------------|-------|---------11-11-|
|--------------|-11--11--11-|-------|---------------|
|--------------|------------|-------|---------------|


   H       +Q   E  S  S    Q.    S  S    Q.    S  S
|-------|---------------|-------------|--------------|
|-------|---------------|-16----------|-16-----------|
|-13----|-(13)----------|-------13-13-|-------13-13--|
|-------|---------13-13-|-------------|--------------|
|-------|---------------|-------------|--------------|
|-------|---------------|-------------|--------------|
|
|  H       +Q   E  S  S    Q.    S  S    Q.    S  S
|-------|---------------|-------------|--------------|
|-------|---------------|-------------|--------------|
|-------|---------------|-------------|--------------|
|-13----|-(13)----------|-------------|--------------|
|-------|---------11-11-|-11----------|-11-----------|
|-------|---------------|-------11-11-|-------11-11--|
|-------|---------------|-------------|--------------|


   Q    Q      Q    Q      E  E  E  E    E  E  E  E
|-16---16---|-16---16---|-------------|-------------|
|-----------|-----------|-------------|-------13----|
|-----------|-----------|----13-12-15-|-13-15----13-|
|-----------|-----------|-15----------|-------------|
|-----------|-----------|-------------|-------------|
|-----------|-----------|-------------|-------------|
|
|  E E  E E    E E  E E    E  E  E  E    E  E  E  E
|-----------|-----------|-------------|-------------|
|-----------|-----------|-------------|-------------|
|-----------|-----------|-------------|-------------|
|-----------|-----------|-------------|-------10----|
|-11---11---|-11---11---|----11-10-13-|-11-13----11-|
|-----------|-----------|-13----------|-------------|
|----9----9-|----9----9-|-------------|-------------|


   E.  S  E  E    E  E  E  E    E  E  Q             E  E  E  E
|--------------|----16----16-|----16-------------|----16----16----|
|-16--14-13----|-------------|-------15----------|----------------|
|-----------15-|-13----13----|-13----------------|-13----13-------|
|--------------|-------------|-------------------|----------------|
|--------------|-------------|-------------------|----------------|
|--------------|-------------|-------------------|----------------|
|
|  E.  S  E  E    E  E  E  E    E  E  S  S  S  S    E  E  E  E
|--------------|-------------|-------------------|----------------|
|--------------|-------------|-------------------|----------------|
|--------------|--8-----8----|--8----11----------|--8-----8-------|
|-13--11-10----|-----6-----6-|-----6----12-------|-----6-----6----|
|-----------13-|-------------|-------------12----|----------------|
|--------------|-------------|----------------14-|----------------|
|--------------|-------------|-------------------|----------------|


   E  E  Q             E  E  S  S  S  S    E  E  S  S  S  S   E  E E  E
|----16-------------|-------15-14-------|-------15-14-------|---16---16-|
|-------15----------|-16----------15----|-16----------15----|-----------|
|-13----------------|----13----------14-|----13----------14-|-----------|
|-------------------|-------------------|-------------------|-----------|
|-------------------|-------------------|-------------------|-----------|
|-------------------|-------------------|-------------------|-----------|
|
|  E  E  S  S  S  S    Q     Q             Q     Q            E  E E  E
|-------------------|-------------------|-------------------|---11------|
|-------------------|-------------------|-------------------|---------9-|
|--8----11----------|-------------------|-------------------|-8---------|
|-----6----12-------|-------------------|-------------------|------6----|
|-------------12----|--------9----------|--------9----------|-----------|
|----------------14-|-------------------|-------------------|-----------|
|-------------------|-------------------|-------------------|-----------|


   E  E E  E    E.  S  E  E    E  E  Q        Q      E.  S
|----16---16-|-16--15-13----|--------------|-----------------|
|------------|-----------16-|-13-----------|-----------------|
|------------|--------------|----15-13-----|--------13--13---|
|------------|--------------|--------------|-13--------------|
|------------|--------------|--------------|-----------------|
|------------|--------------|--------------|-----------------|
|
|  E  E E  E    E.  S  E  E    E  E  E.  S    E.  S  E   E
|------------|--------------|--------------|-----------------|
|----13------|--------------|--------------|-----------------|
|---------11-|-13--12-10----|--------------|-----------------|
|-10---------|-----------13-|-10-----------|-----------------|
|-------9----|--------------|----13-11--10-|-11--10----------|
|------------|--------------|--------------|--------13--11---|
|------------|--------------|--------------|-----------------|


   E  E  E  E    E.  S  E  E    E  E  Q       E.     S  E  E
|-------------|--------------|-------------|-----------------|
|-------------|-13--11-------|-------------|-13-----11-------|
|-------13----|--------13----|-------------|-----------13----|
|-13-13----13-|-----------13-|-10----------|--------------13-|
|-------------|--------------|----13-11----|-----------------|
|-------------|--------------|-------------|-----------------|
|
|  E  E  Q       E.  S  E  E    E  E  E  E    H
|-------------|--------------|-------------|-----------------|
|-------------|--------------|-------------|-----------------|
|-------------|-11-----------|-------------|-----------------|
|-------------|-----14-12----|-------------|-----------------|
|-------11----|-----------14-|-11----------|-----------------|
|-------------|--------------|----14-12-14-|-11tr10----------|
|-13-11-------|--------------|-------------|-----------------|


   +Q      Q       E  E  Q     E  E  Q     E  E  Q
|---------------|-----------|-----------|-----------|
|---------------|-----------|-------12--|-----------|
|---------------|-------11--|-----------|-------11--|
|-(13)----------|-13--------|-13--------|-13--------|
|---------------|----11-----|----11-----|----11-----|
|---------------|-----------|-----------|-----------|
|
|   E.  S  E  E    E  E  Q     E  E  Q     E  E  Q
|---------------|-----------|-----------|-----------|
|---------------|-----------|-----------|-----------|
|--11-----------|-----------|-----------|-----------|
|------14-12----|-13--------|-13--------|-13--------|
|------------12-|----11-----|----11-14--|----11-----|
|---------------|-------14--|-----------|-------14--|
|---------------|-----------|-----------|-----------|


   E  E  Q     Q     Q       +Q      Q       Q     Q
|-----------|-13----16----|-(16)----13----|-15----18----|
|-------12--|-------------|---------------|-------------|
|-----------|-------------|---------------|-------------|
|-13--------|-------------|---------------|-------------|
|----11-----|-------------|---------------|-------------|
|-----------|-------------|---------------|-------------|
|
|  E  E  Q     E  E  E  E     E   E  E  E    E  E  E  E
|-----------|-------------|---------------|-------------|
|-----------|-------------|---------------|-------------|
|-----------|-------10----|---------10----|-------12----|
|-13--------|-11----------|--11-----------|-11----------|
|----11-14--|----11----11-|------11----11-|----11----11-|
|-----------|-------------|---------------|-------------|
|-----------|-------------|---------------|-------------|


   +Q      Q       S  S  S  S  Q     S  S  S  S  Q
|-(18)----13----|----------11-10--|----------11-10---|
|---------------|-------13--------|-------13---------|
|---------------|----13-----------|----13------------|
|---------------|-13--------------|-13---------------|
|---------------|-----------------|------------------|
|---------------|-----------------|------------------|
|
|   E   E  E  E    S  S  S  S  Q     S  S  S  S  Q
|---------------|-----------------|------------------|
|---------------|-----------------|------------------|
|---------12----|-----------------|------------------|
|--11-----------|-10--------------|-10---------------|
|------11----11-|----11--------9--|----11--------9---|
|---------------|-------11--8-----|-------11--8------|
|---------------|-----------------|------------------|


   S  S S S  S  S  S  S    S  S  S  S  S  S  S  S
|--------------------10-|----------11----------14-|
|---------9-------10----|-------13----------15----|
|-------8------11-------|----13----------14-------|
|----10-----12----------|-13----------16----------|
|-11--------------------|-------------------------|
|-----------------------|-------------------------|
|
|  S  S S S  S  S  S  S    S  S  S  S  S  S  S  S
|-----------------------|-------------------------|
|-----------------------|-------------------------|
|---------------------8-|-------------------------|
|---------7--------8----|-----------6----------12-|
|-------6-------9-------|--------6----------12----|
|-----8-----10----------|-----8----------14-------|
|--9--------------------|--9----------15----------|


   E      E  Q       W
|-16--------------|------------------||
|-----------------|-----------------o||
|-----------------|------------------||
|-----------------|------------------||
|-----------------|-----------------o||
|-----------------|------------------||
|
|                    |--3--|
|  H                 S  S  S  Q.
|-----------------|------------------||
|-----------------|------------------||
|-----------------|-----------------o||
|-10tr12----------|-10-12-10-10------||
|-----------------|-----------------o||
|-----------------|------------------||
|-----------------|------------------||
Добавлено: 18.02.2016
Другие материалы по этой песне:

Страница создана 24.05.2012
http://primanota.ru/misc-computer-games/gauntlet-song-c-chords.htm
Привет, Гость.
Предлагаем пройти революционный курс по гитаре.
Подарок от PrimaNota.Ru, забирай!